Oops, an error
Loading. Please wait.

Turn It On tab

by Default
1,530 views 1 this week
2 commentsread comments
1 2 3 4 5
2 more votes to show rating
add to favorites
×
Save as Personal and add changes to this tab that will be seen only by you. Learn more ›
×
You can save this tab as Personal to edit and correct it or add notes. All changes will be seen only by you. Learn more »
launch autoscroll
font size
0
reset
how to read this tab
guitar tuner
edit
Autoscroll
slow
fast
+/-
esc
set tempo
stop
Turn It On
Default
Comes and Goes (2009)

Turn It On: written by Dallas Smith, Jeremy Hora, Dave Benedict, Danny Craig, 
Martin Frederiksen, Bob Marlette

NOTE: I couldn't get all of the solo, but I put what I knew.

GTR I - Drop D Tuning (e,B,G,D,A,D)
GTR II - Drop D Tuning (e,B,G,D,A,D)
GTR III - Drop D Tuning (e,B,G,D,A,D)

Intro

  GTR I (Dist. with Reverb)
e|-------------------------------------------------|
B|-------------------------------------------------|
G|-------------------------------------------------|
D|--------x-----------------------x----------------|
A|--------x-----8-----5-----------x-----8-----5----|
D|--0-----x--0--------------0-----x--0-------------|
 |
 |GTR II (Dist. with Reverb)
e|-------------------------------------------------|
B|-------------------------------------------------|
G|-------------------------------------------------|
D|--------x-----------------------x----------------|
A|--------x-----8-----5-----------x-----8-----5----|
D|--0-----x--0--------------0-----x--0-------------|

  GTR I
e|-------------------------------------------------|
B|-------------------------------------------------|
G|-------------------------------------------------|
D|--------x-----------------------x----------------|
A|--------x-----8-----5-----------x-----3----------|
D|--0-----x--0--------------3--3--x--3-------------|
 |
 |GTR II
e|-------------------------------------------------|
B|-------------------------------------------------|
G|-------------------------------------------------|
D|--------x-----------------------x----------------|
A|--------x-----8-----5-----------x-----3----------|
D|--0-----x--0--------------3--3--x--3-------------|

  GTR I 
e|-------------------------------------------------|
B|-------------------------------------------------|
G|-------------------------------------------------|
D|--------x-----------------------x----------------|
A|--------x-----8-----5-----------x-----8-----5----|
D|--0-----x--0--------------0-----x--0-------------|
 |
 |GTR II 
e|-------------------------------------------------|
B|-------------------------------------------------|
G|-------------------------------------------------|
D|--------x-----------------------x----------------|
A|--------x-----8-----5-----------x-----8-----5----|
D|--0-----x--0--------------0-----x--0-------------|

  GTR I
e|-------------------------------------------------|
B|-------------------------------------------------|
G|-------------------------------------------------|
D|--------x-----------------------x----------------|
A|--------x-----8-----5-----------x-----3----------|
D|--0-----x--0--------------3--3--x--3-------------|
 |
 |GTR II
e|-------------------------------------------------|
B|-------------------------------------------------|
G|-------------------------------------------------|
D|--------x-----------------------x----------------|
A|--------x-----8-----5-----------x-----3----------|
D|--0-----x--0--------------3--3--x--3-------------|

Verse

  GTR I
e|-------------------------------------------------|
B|-------------------------------------------------|
G|-------10----10\-7--------------5-----5/-7-------|
D|--0-----x-----x--x--------0-----x-----x--x-------|
A|--0-----8-----8\-5--------0-----3-----3/-5-------|
D|--0-----------------------0----------------------|
 |
 |GTR II
e|-------------------------------------------------|
B|-------------------------------------------------|
G|-------10----10\-7--------------5-----5/-7-------|
D|--0-----x-----x--x--------0-----x-----x--x-------|
A|--0-----8-----8\-5--------0-----3-----3/-5-------|
D|--0-----------------------0----------------------|

  GTR I
e|-------------------------------------------------|
B|-------------------------------------------------|
G|-------10----10\-7-------------------------------|
D|--0-----x-----x--x--------3-----------5----------|
A|--0-----8-----8\-5--------3-----------5----------|
D|--0-----------------------3-----------5----------|
 |
 |GTR II
e|-------------------------------------------------|
B|-------------------------------------------------|
G|-------10----10\-7-------------------------------|
D|--0-----x-----x--x--------3-----------5----------|
A|--0-----8-----8\-5--------3-----------5----------|
D|--0-----------------------3-----------5----------|

  GTR I
e|-------------------------------------------------|
B|-------------------------------------------------|
G|-------10----10\-7--------------5-----5/-7-------|
D|--0-----x-----x--x--------0-----x-----x--x-------|
A|--0-----8-----8\-5--------0-----3-----3/-5-------|
D|--0-----------------------0----------------------|
 |
 |GTR II
e|-------------------------------------------------|
B|-------------------------------------------------|
G|-------10----10\-7--------------5-----5/-7-------|
D|--0-----x-----x--x--------0-----x-----x--x-------|
A|--0-----8-----8\-5--------0-----3-----3/-5-------|
D|--0-----------------------0----------------------|

  GTR I
e|-------------------------------------------------|
B|-------------------------------------------------|
G|-------10----10\-7-------------------------------|
D|--0-----x-----x--x--------3-----------5----------|
A|--0-----8-----8\-5--------3-----------5----------|
D|--0-----------------------3-----------5----------|
 |
 |GTR II
e|-------------------------------------------------|
B|-------------------------------------------------|
G|-------10----10\-7-------------------------------|
D|--0-----x-----x--x--------3-----------5----------|
A|--0-----8-----8\-5--------3-----------5----------|
D|--0-----------------------3-----------5----------|

  GTR I
e|-------------------------------------------------|
B|-------------------------------------------------|
G|-------10----10\-7--------------5-----5/-7-------|
D|--0-----x-----x--x--------0-----x-----x--x-------|
A|--0-----8-----8\-5--------0-----3-----3/-5-------|
D|--0-----------------------0----------------------|
 |
 |GTR II
e|-------------------------------------------------|
B|-------------------------------------------------|
G|-------10----10\-7--------------5-----5/-7-------|
D|--0-----x-----x--x--------0-----x-----x--x-------|
A|--0-----8-----8\-5--------0-----3-----3/-5-------|
D|--0-----------------------0----------------------|

  GTR I
e|-------------------------------------------------|
B|-------------------------------------------------|
G|-------10----10\-7-------------------------------|
D|--0-----x-----x--x--------3-----------5----------|
A|--0-----8-----8\-5--------3-----------5----------|
D|--0-----------------------3-----------5----------|
 |
 |GTR II
e|-------------------------------------------------|
B|-------------------------------------------------|
G|-------10----10\-7-------------------------------|
D|--0-----x-----x--x--------3-----------5----------|
A|--0-----8-----8\-5--------3-----------5----------|
D|--0-----------------------3-----------5----------|

  GTR I
e|-------------------------------------------------|
B|-------------------------------------------------|
G|-------10----10\-7--------------5-----5/-7-------|
D|--0-----x-----x--x--------0-----x-----x--x-------|
A|--0-----8-----8\-5--------0-----3-----3/-5-------|
D|--0-----------------------0----------------------|
 |
 |GTR II
e|-------------------------------------------------|
B|-------------------------------------------------|
G|-------10----10\-7--------------5-----5/-7-------|
D|--0-----x-----x--x--------0-----x-----x--x-------|
A|--0-----8-----8\-5--------0-----3-----3/-5-------|
D|--0-----------------------0----------------------|

  GTR I
e|-------------------------------------------------|
B|-------------------------------------------------|
G|-------10----10\-7-------------------------------|
D|--0-----x-----x--x--------3-----------5----------|
A|--0-----8-----8\-5--------3-----------5----------|
D|--0-----------------------3-----------5----------|
 |
 |GTR II
e|-------------------------------------------------|
B|-------------------------------------------------|
G|-------10----10\-7-------------------------------|
D|--0-----x-----x--x--------3-----------5----------|
A|--0-----8-----8\-5--------3-----------5----------|
D|--0-----------------------3-----------5----------|

Pre Chorus

  GTR I
e|-------------------------------------------------|
B|-------------------------------------------------|
G|-------------------------------------------------|
D|--8----------------------------------------------|
A|--8----------------------------------------------|
D|--8----------------------------------------------|
 |
 |GTR II
e|-------------------------------------------------|
B|-------------------------------------------------|
G|-------------------------------------------------|
D|--8----------------------------------------------|
A|--8----------------------------------------------|
D|--8----------------------------------------------|

  GTR I
e|-------------------------------------------------|
B|-------------------------------------------------|
G|-------------------------------------------------|
D|--5----------------------------------------------|
A|--5----------------------------------------------|
D|--5----------------------------------------------|
 |
 |GTR II
e|-------------------------------------------------|
B|-------------------------------------------------|
G|-------------------------------------------------|
D|--5----------------------------------------------|
A|--5----------------------------------------------|
D|--5----------------------------------------------|

  GTR I
e|-------------------------------------------------|
B|-------------------------------------------------|
G|-------------------------------------------------|
D|--8----------------------------------------------|
A|--8----------------------------------------------|
D|--8----------------------------------------------|
 |
 |GTR II
e|-------------------------------------------------|
B|-------------------------------------------------|
G|-------------------------------------------------|
D|--8----------------------------------------------|
A|--8----------------------------------------------|
D|--8----------------------------------------------|

  GTR I
e|-------------------------------------------------|
B|-------------------------------------------------|
G|-------------------------------------------------|
D|-10----------------------------------------------|
A|-10----------------------------------------------|
D|-10----------------------------------------------|
 |
 |GTR II
e|-------------------------------------------------|
B|-------------------------------------------------|
G|-------------------------------------------------|
D|-10----------------------------------------------|
A|-10----------------------------------------------|
D|-10----------------------------------------------|

Chorus

  GTR I
e|--x-----x-----x-----x--x--x-----x-----x-----x--x-|
B|--3-----3-----3-----3--3--3-----3-----3-----3--3-|
G|--2-----2-----2-----2--2--2-----2-----2-----2--2-|
D|--0-----0-----0-----0--0--0-----0-----0-----0--0-|
A|--0-----0-----0-----0--0--0-----0-----0-----0--0-|
D|-------------------------------------------------|
 |
 |GTR II
e|-------------15----------14----------------------|
B|-------------------------------------15----------|
G|-------------------------------------------------|
D|-------------------------------------------------|
A|-------------------------------------------------|
D|-------------------------------------------------|

  GTR I
e|-------------------------------------------------|
B|-------------------------------------------------|
G|--5-----5-----5-----5--5--5-----5-----5-----5--5-|
D|--5-----5-----5-----5--5--5-----5-----5-----5--5-|
A|--3-----3-----3-----3--3--3-----3-----3-----3--3-|
D|-------------------------------------------------|
 |
 |GTR II
e|-------------------------------------------------|
B|-13----------15----------------------------------|
G|-------------------------------------------------|
D|-------------------------------------------------|
A|-------------------------------------------------|
D|-------------------------------------------------|

  GTR I
e|-------------------------------------------------|
B|-------------------------------------------------|
G|--4-----4-----4-----4--4--4-----4-----4-----4--4-|
D|--4-----4-----4-----4--4--4-----4-----4-----4--4-|
A|--2-----2-----2-----2--2--2-----2-----2-----2--2-|
D|-------------------------------------------------|
 |
 |GTR II
e|-------------15----------14----------------------|
B|-------------------------------------15----------|
G|-------------------------------------------------|
D|-------------------------------------------------|
A|-------------------------------------------------|
D|-------------------------------------------------|

  GTR I
e|-------------------------------------------------|
B|-------------------------------------------------|
G|--3-----3-----3-----3--3--5-----5-----5-----5--5-|
D|--3-----3-----3-----3--3--5-----5-----5-----5--5-|
A|--1-----1-----1-----1--1--3-----3-----3-----3--3-|
D|-------------------------------------------------|
 |
 |GTR II
e|-------------------------------------------------|
B|-13----------15----------------------------------|
G|-------------------------------------------------|
D|-------------------------------------------------|
A|-------------------------------------------------|
D|-------------------------------------------------|

  GTR I
e|--x-----x-----x-----x--x--x-----x-----x-----x--x-|
B|--3-----3-----3-----3--3--3-----3-----3-----3--3-|
G|--2-----2-----2-----2--2--2-----2-----2-----2--2-|
D|--0-----0-----0-----0--0--0-----0-----0-----0--0-|
A|--0-----0-----0-----0--0--0-----0-----0-----0--0-|
D|-------------------------------------------------|
 |
 |GTR II
e|-------------15----------14----------------------|
B|-------------------------------------15----------|
G|-------------------------------------------------|
D|-------------------------------------------------|
A|-------------------------------------------------|
D|-------------------------------------------------|

  GTR I
e|-------------------------------------------------|
B|-------------------------------------------------|
G|--5-----5-----5-----5--5--5-----5-----5-----5--5-|
D|--5-----5-----5-----5--5--5-----5-----5-----5--5-|
A|--3-----3-----3-----3--3--3-----3-----3-----3--3-|
D|-------------------------------------------------|
 |
 |GTR II
e|-------------------------------------------------|
B|-13----------15----------------------------------|
G|-------------------------------------------------|
D|-------------------------------------------------|
A|-------------------------------------------------|
D|-------------------------------------------------|

  GTR I
e|-------------------------------------------------|
B|-------------------------------------------------|
G|--4-----4-----4-----4--4--4-----4-----4-----4--4-|
D|--4-----4-----4-----4--4--4-----4-----4-----4--4-|
A|--2-----2-----2-----2--2--2-----2-----2-----2--2-|
D|-------------------------------------------------|
 |
 |GTR II
e|-------------15----------14----------------------|
B|-------------------------------------15----------|
G|-------------------------------------------------|
D|-------------------------------------------------|
A|-------------------------------------------------|
D|-------------------------------------------------|

  GTR I
e|-------------------------------------------------|
B|-------------------------------------------------|
G|--3-----3-----3-----3--3--5-----5-----5-----5--5-|
D|--3-----3-----3-----3--3--5-----5-----5-----5--5-|
A|--1-----1-----1-----1--1--3-----3-----3-----3--3-|
D|-------------------------------------------------|
 |
 |GTR II
e|-------------------------------------------------|
B|-13----------------------15----------------------|
G|-------------------------------------------------|
D|-------------------------------------------------|
A|-------------------------------------------------|
D|-------------------------------------------------|

Intro

  GTR I 
e|-------------------------------------------------|
B|-------------------------------------------------|
G|-------------------------------------------------|
D|--------x-----------------------x----------------|
A|--------x-----8-----5-----------x-----8-----5----|
D|--0-----x--0--------------0-----x--0-------------|
 |
 |GTR II 
e|-------------------------------------------------|
B|-------------------------------------------------|
G|-------------------------------------------------|
D|--------x-----------------------x----------------|
A|--------x-----8-----5-----------x-----8-----5----|
D|--0-----x--0--------------0-----x--0-------------|

  GTR I
e|-------------------------------------------------|
B|-------------------------------------------------|
G|-------------------------------------------------|
D|--------x-----------------------x----------------|
A|--------x-----8-----5-----------x-----3----------|
D|--0-----x--0--------------3--3--x--3-------------|
 |
 |GTR II
e|-------------------------------------------------|
B|-------------------------------------------------|
G|-------------------------------------------------|
D|--------x-----------------------x----------------|
A|--------x-----8-----5-----------x-----3----------|
D|--0-----x--0--------------3--3--x--3-------------|

  GTR I 
e|-------------------------------------------------|
B|-------------------------------------------------|
G|-------------------------------------------------|
D|--------x-----------------------x----------------|
A|--------x-----8-----5-----------x-----8-----5----|
D|--0-----x--0--------------0-----x--0-------------|
 |
 |GTR II 
e|-------------------------------------------------|
B|-------------------------------------------------|
G|-------------------------------------------------|
D|--------x-----------------------x----------------|
A|--------x-----8-----5-----------x-----8-----5----|
D|--0-----x--0--------------0-----x--0-------------|

  GTR I
e|-------------------------------------------------|
B|-------------------------------------------------|
G|-------------------------------------------------|
D|--------x-----------------------x----------------|
A|--------x-----8-----5-----------x-----3----------|
D|--0-----x--0--------------3--3--x--3-------------|
 |
 |GTR II
e|-------------------------------------------------|
B|-------------------------------------------------|
G|-------------------------------------------------|
D|--------x-----------------------x----------------|
A|--------x-----8-----5-----------x-----3----------|
D|--0-----x--0--------------3--3--x--3-------------|

Verse

  GTR I
e|-------------------------------------------------|
B|-------------------------------------------------|
G|-------10----10\-7--------------5-----5/-7-------|
D|--0-----x-----x--x--------0-----x-----x--x-------|
A|--0-----8-----8\-5--------0-----3-----3/-5-------|
D|--0-----------------------0----------------------|
 |
 |GTR II
e|-------------------------------------------------|
B|-------------------------------------------------|
G|-------10----10\-7--------------5-----5/-7-------|
D|--0-----x-----x--x--------0-----x-----x--x-------|
A|--0-----8-----8\-5--------0-----3-----3/-5-------|
D|--0-----------------------0----------------------|

  GTR I
e|-------------------------------------------------|
B|-------------------------------------------------|
G|-------10----10\-7-------------------------------|
D|--0-----x-----x--x--------3-----------5----------|
A|--0-----8-----8\-5--------3-----------5----------|
D|--0-----------------------3-----------5----------|
 |
 |GTR II
e|-------------------------------------------------|
B|-------------------------------------------------|
G|-------10----10\-7-------------------------------|
D|--0-----x-----x--x--------3-----------5----------|
A|--0-----8-----8\-5--------3-----------5----------|
D|--0-----------------------3-----------5----------|

  GTR I
e|-------------------------------------------------|
B|-------------------------------------------------|
G|-------10----10\-7--------------5-----5/-7-------|
D|--0-----x-----x--x--------0-----x-----x--x-------|
A|--0-----8-----8\-5--------0-----3-----3/-5-------|
D|--0-----------------------0----------------------|
 |
 |GTR II
e|-------------------------------------------------|
B|-------------------------------------------------|
G|-------10----10\-7--------------5-----5/-7-------|
D|--0-----x-----x--x--------0-----x-----x--x-------|
A|--0-----8-----8\-5--------0-----3-----3/-5-------|
D|--0-----------------------0----------------------|

  GTR I
e|-------------------------------------------------|
B|-------------------------------------------------|
G|-------10----10\-7-------------------------------|
D|--0-----x-----x--x--------3-----------5----------|
A|--0-----8-----8\-5--------3-----------5----------|
D|--0-----------------------3-----------5----------|
 |
 |GTR II
e|-------------------------------------------------|
B|-------------------------------------------------|
G|-------10----10\-7-------------------------------|
D|--0-----x-----x--x--------3-----------5----------|
A|--0-----8-----8\-5--------3-----------5----------|
D|--0-----------------------3-----------5----------|

  GTR I
e|-------------------------------------------------|
B|-------------------------------------------------|
G|-------10----10\-7--------------5-----5/-7-------|
D|--0-----x-----x--x--------0-----x-----x--x-------|
A|--0-----8-----8\-5--------0-----3-----3/-5-------|
D|--0-----------------------0----------------------|
 |
 |GTR II
e|-------------------------------------------------|
B|-------------------------------------------------|
G|-------10----10\-7--------------5-----5/-7-------|
D|--0-----x-----x--x--------0-----x-----x--x-------|
A|--0-----8-----8\-5--------0-----3-----3/-5-------|
D|--0-----------------------0----------------------|

  GTR I
e|-------------------------------------------------|
B|-------------------------------------------------|
G|-------10----10\-7-------------------------------|
D|--0-----x-----x--x--------3-----------5----------|
A|--0-----8-----8\-5--------3-----------5----------|
D|--0-----------------------3-----------5----------|
 |
 |GTR II
e|-------------------------------------------------|
B|-------------------------------------------------|
G|-------10----10\-7-------------------------------|
D|--0-----x-----x--x--------3-----------5----------|
A|--0-----8-----8\-5--------3-----------5----------|
D|--0-----------------------3-----------5----------|

  GTR I
e|-------------------------------------------------|
B|-------------------------------------------------|
G|-------10----10\-7--------------5-----5/-7-------|
D|--0-----x-----x--x--------0-----x-----x--x-------|
A|--0-----8-----8\-5--------0-----3-----3/-5-------|
D|--0-----------------------0----------------------|
 |
 |GTR II
e|-------------------------------------------------|
B|-------------------------------------------------|
G|-------10----10\-7--------------5-----5/-7-------|
D|--0-----x-----x--x--------0-----x-----x--x-------|
A|--0-----8-----8\-5--------0-----3-----3/-5-------|
D|--0-----------------------0----------------------|

  GTR I
e|-------------------------------------------------|
B|-------------------------------------------------|
G|-------10----10\-7-------------------------------|
D|--0-----x-----x--x--------3-----------5----------|
A|--0-----8-----8\-5--------3-----------5----------|
D|--0-----------------------3-----------5----------|
 |
 |GTR II
e|-------------------------------------------------|
B|-------------------------------------------------|
G|-------10----10\-7-------------------------------|
D|--0-----x-----x--x--------3-----------5----------|
A|--0-----8-----8\-5--------3-----------5----------|
D|--0-----------------------3-----------5----------|

Pre Chorus

  GTR I
e|-------------------------------------------------|
B|-------------------------------------------------|
G|-------------------------------------------------|
D|--8----------------------------------------------|
A|--8----------------------------------------------|
D|--8----------------------------------------------|
 |
 |GTR II
e|-------------------------------------------------|
B|-------------------------------------------------|
G|-------------------------------------------------|
D|--8----------------------------------------------|
A|--8----------------------------------------------|
D|--8----------------------------------------------|

  GTR I
e|-------------------------------------------------|
B|-------------------------------------------------|
G|-------------------------------------------------|
D|--5----------------------------------------------|
A|--5----------------------------------------------|
D|--5----------------------------------------------|
 |
 |GTR II
e|-------------------------------------------------|
B|-------------------------------------------------|
G|-------------------------------------------------|
D|--5----------------------------------------------|
A|--5----------------------------------------------|
D|--5----------------------------------------------|

  GTR I
e|-------------------------------------------------|
B|-------------------------------------------------|
G|-------------------------------------------------|
D|--8----------------------------------------------|
A|--8----------------------------------------------|
D|--8----------------------------------------------|
 |
 |GTR II
e|-------------------------------------------------|
B|-------------------------------------------------|
G|-------------------------------------------------|
D|--8----------------------------------------------|
A|--8----------------------------------------------|
D|--8----------------------------------------------|

  GTR I
e|-------------------------------------------------|
B|-------------------------------------------------|
G|-------------------------------------------------|
D|-10----------------------------------------------|
A|-10----------------------------------------------|
D|-10----------------------------------------------|
 |
 |GTR II
e|-------------------------------------------------|
B|-------------------------------------------------|
G|-------------------------------------------------|
D|-10----------------------------------------------|
A|-10----------------------------------------------|
D|-10----------------------------------------------|

Chorus

  GTR I
e|--x-----x-----x-----x--x--x-----x-----x-----x--x-|
B|--3-----3-----3-----3--3--3-----3-----3-----3--3-|
G|--2-----2-----2-----2--2--2-----2-----2-----2--2-|
D|--0-----0-----0-----0--0--0-----0-----0-----0--0-|
A|--0-----0-----0-----0--0--0-----0-----0-----0--0-|
D|-------------------------------------------------|
 |
 |GTR II
e|-------------15----------14----------------------|
B|-------------------------------------15----------|
G|-------------------------------------------------|
D|-------------------------------------------------|
A|-------------------------------------------------|
D|-------------------------------------------------|

  GTR I
e|-------------------------------------------------|
B|-------------------------------------------------|
G|--5-----5-----5-----5--5--5-----5-----5-----5--5-|
D|--5-----5-----5-----5--5--5-----5-----5-----5--5-|
A|--3-----3-----3-----3--3--3-----3-----3-----3--3-|
D|-------------------------------------------------|
 |
 |GTR II
e|-------------------------------------------------|
B|-13----------15----------------------------------|
G|-------------------------------------------------|
D|-------------------------------------------------|
A|-------------------------------------------------|
D|-------------------------------------------------|

  GTR I
e|-------------------------------------------------|
B|-------------------------------------------------|
G|--4-----4-----4-----4--4--4-----4-----4-----4--4-|
D|--4-----4-----4-----4--4--4-----4-----4-----4--4-|
A|--2-----2-----2-----2--2--2-----2-----2-----2--2-|
D|-------------------------------------------------|
 |
 |GTR II
e|-------------15----------14----------------------|
B|-------------------------------------15----------|
G|-------------------------------------------------|
D|-------------------------------------------------|
A|-------------------------------------------------|
D|-------------------------------------------------|

  GTR I
e|-------------------------------------------------|
B|-------------------------------------------------|
G|--3-----3-----3-----3--3--5-----5-----5-----5--5-|
D|--3-----3-----3-----3--3--5-----5-----5-----5--5-|
A|--1-----1-----1-----1--1--3-----3-----3-----3--3-|
D|-------------------------------------------------|
 |
 |GTR II
e|-------------------------------------------------|
B|-13----------15----------------------------------|
G|-------------------------------------------------|
D|-------------------------------------------------|
A|-------------------------------------------------|
D|-------------------------------------------------|

  GTR I
e|--x-----x-----x-----x--x--x-----x-----x-----x--x-|
B|--3-----3-----3-----3--3--3-----3-----3-----3--3-|
G|--2-----2-----2-----2--2--2-----2-----2-----2--2-|
D|--0-----0-----0-----0--0--0-----0-----0-----0--0-|
A|--0-----0-----0-----0--0--0-----0-----0-----0--0-|
D|-------------------------------------------------|
 |
 |GTR II
e|-------------15----------14----------------------|
B|-------------------------------------15----------|
G|-------------------------------------------------|
D|-------------------------------------------------|
A|-------------------------------------------------|
D|-------------------------------------------------|

  GTR I
e|-------------------------------------------------|
B|-------------------------------------------------|
G|--5-----5-----5-----5--5--5-----5-----5-----5--5-|
D|--5-----5-----5-----5--5--5-----5-----5-----5--5-|
A|--3-----3-----3-----3--3--3-----3-----3-----3--3-|
D|-------------------------------------------------|
 |
 |GTR II
e|-------------------------------------------------|
B|-13----------15----------------------------------|
G|-------------------------------------------------|
D|-------------------------------------------------|
A|-------------------------------------------------|
D|-------------------------------------------------|

  GTR I
e|-------------------------------------------------|
B|-------------------------------------------------|
G|--4-----4-----4-----4--4--4-----4-----4-----4--4-|
D|--4-----4-----4-----4--4--4-----4-----4-----4--4-|
A|--2-----2-----2-----2--2--2-----2-----2-----2--2-|
D|-------------------------------------------------|
 |
 |GTR II
e|-------------15----------14----------------------|
B|-------------------------------------15----------|
G|-------------------------------------------------|
D|-------------------------------------------------|
A|-------------------------------------------------|
D|-------------------------------------------------|

  GTR I
e|-------------------------------------------------|
B|-------------------------------------------------|
G|--3-----3-----3-----3--3--5-----5-----5-----5----|
D|--3-----3-----3-----3--3--5-----5-----5-----5----|
A|--1-----1-----1-----1--1--3-----3-----3-----3----|
D|-------------------------------------------------|
 |
 |GTR II
e|-------------------------------------------------|
B|-13----------------------15----------------------|
G|-------------------------------------------------|
D|-------------------------------------------------|
A|-------------------------------------------------|
D|-------------------------------------------------|

Bridge

  GTR I
e|-------------------------------------------------|
B|-------------------------------------------------|
G|-------------------------------------------------|
D|--7-----------------7----------------------------|
A|--7-----------------7----------------------------|
D|--7-----------------7----------------------------|
 |
 |GTR II
e|-------------------------------------------------|
B|-------------------------------------------------|
G|-------------------------------------------------|
D|--7-----------------7----------------------------|
A|--7-----------------7----------------------------|
D|--7-----------------7----------------------------|

  GTR I
e|-------------------------------------------------|
B|-------------------------------------------------|
G|-------------------------------------------------|
D|--7-----------------7-----------5--------3-------|
A|--7-----------------7-----------5--------3-------|
D|--7-----------------7-----------5--------3-------|
 |
 |GTR II
e|-------------------------------------------------|
B|-------------------------------------------------|
G|-------------------------------------------------|
D|--7-----------------7-----------5--------3-------|
A|--7-----------------7-----------5--------3-------|
D|--7-----------------7-----------5--------3-------|

  GTR I
e|-------------------------------------------------|
B|-------------------------------------------------|
G|-------------------------------------------------|
D|--7-----------------7----------------------------|
A|--7-----------------7----------------------------|
D|--7-----------------7----------------------------|
 |
 |GTR II
e|-------------------------------------------------|
B|-------------------------------------------------|
G|-------------------------------------------------|
D|--7-----------------7----------------------------|
A|--7-----------------7----------------------------|
D|--7-----------------7----------------------------|

  GTR I
e|-------------------------------------------------|
B|-------------------------------------------------|
G|-------------------------------------------------|
D|--7-----------------7-----8----------------------|
A|--7-----------------7-----8----------------------|
D|--7-----------------7-----8----------------------|
 |
 |GTR II
e|-------------------------------------------------|
B|-------------------------------------------------|
G|-------------------------------------------------|
D|--7-----------------7-----8----------------------|
A|--7-----------------7-----8----------------------|
D|--7-----------------7-----8----------------------|

  GTR I,II
e|-------------------------------------------------|
B|-------------------------------------------------|
G|-------------------------------------------------|
D|--7-----------------7----------------------------|
A|--7-----------------7----------------------------|
D|--7-----------------7----------------------------|
 |
 |GTR III (Distortion)
e|-------------------------------------------------|
B|-10----------------------------------------------|
G|-------------------------------------------------|
D|-------------------------------------------------|
A|-------------------------------------------------|
D|-------------------------------------------------|

  GTR I,II
e|-------------------------------------------------|
B|-------------------------------------------------|
G|-------------------------------------------------|
D|--7-----------------7-----------5--------3-------|
A|--7-----------------7-----------5--------3-------|
D|--7-----------------7-----------5--------3-------|
 |
 |GTR III
e|-------------------------------------------------|
B|-------------------------------------------------|
G|-------------------------------------------------|
D|-------------------------------------------------|
A|-------------------------------------------------|
D|-------------------------------------------------|

  GTR I,II
e|-------------------------------------------------|
B|-------------------------------------------------|
G|-------------------------------------------------|
D|--7-----------------7----------------------------|
A|--7-----------------7----------------------------|
D|--7-----------------7----------------------------|
 |
 |GTR III
e|-------------------------------------------------|
B|-10b---------------------------------------------|
G|-------------------------------------------------|
D|-------------------------------------------------|
A|-------------------------------------------------|
D|-------------------------------------------------|

  GTR I,II
e|-------------------------------------------------|
B|-------------------------------------------------|
G|-------------------------------------------------|
D|--5-----------------3--------------2-------------|
A|--5-----------------3--------------2-------------|
D|--5-----------------3--------------2-------------|
 |
 |GTR III
e|-------------------------------------------------|
B|---------------------------------------13/-15~---|
G|-------------------------------------------------|
D|-------------------------------------------------|
A|-------------------------------------------------|
D|-------------------------------------------------|

Solo

  GTR I,II
e|-------------------------------------------------|
B|-------------------------------------------------|
G|-------------------------------------------------|
D|--------x-----------------------x----------------|
A|--------x-----8-----5-----------x-----8-----5----|
D|--0-----x--0--------------0-----x--0-------------|
 |
 |GTR III
e|-------------------------------------------------|
B|-------------------------------------------------|
G|-------------------------------------------------|
D|-------------------------------------------------|
A|-------------------------------------------------|
D|-------------------------------------------------|

  GTR I,II
e|-------------------------------------------------|
B|-------------------------------------------------|
G|-------------------------------------------------|
D|--------x-----------------------x----------------|
A|--------x-----8-----5-----------x-----3----------|
D|--0-----x--0--------------3--3--x--3-------------|
 |
 |GTR III
e|-------------------------------------------------|
B|-------------------------------------------------|
G|-------------------------------------------------|
D|-------------------------------------------------|
A|-------------------------------------------------|
D|-------------------------------------------------|

  GTR I,II
e|-------------------------------------------------|
B|-------------------------------------------------|
G|-------------------------------------------------|
D|--------x-----------------------x----------------|
A|--------x-----8-----5-----------x-----8-----5----|
D|--0-----x--0--------------0-----x--0-------------|
 |
 |GTR III
e|-------------------------------------------------|
B|-------------------------------------------------|
G|-------------------------------------------------|
D|-------------------------------------------------|
A|-------------------------------------------------|
D|-------------------------------------------------|

  GTR I,II
e|-------------------------------------------------|
B|-------------------------------------------------|
G|-------------------------------------------------|
D|--------x-----------------------x----------------|
A|--------x-----8-----5-----------x-----3----------|
D|--0-----x--0--------------3--3--x--3-------------|
 |
 |GTR III
e|-------------------------------------------------|
B|-------------------------------------------------|
G|-------------------------------------------------|
D|-------------------------------------------------|
A|-------------------------------------------------|
D|-------------------------------------------------|

  GTR I,II
e|-------------------------------------------------|
B|-------------------------------------------------|
G|-------------------------------------------------|
D|--------x-----------------------x----------------|
A|--------x-----8-----5-----------x-----8-----5----|
D|--0-----x--0--------------0-----x--0-------------|
 |
 |GTR III
e|-------------------------------------------------|
B|-------------------------------------------------|
G|-------------------------------------------------|
D|-------------------------------------------------|
A|-------------------------------------------------|
D|-------------------------------------------------|

  GTR I,II
e|-------------------------------------------------|
B|-------------------------------------------------|
G|-------------------------------------------------|
D|--------x-----------------------x----------------|
A|--------x-----8-----5-----------x-----3----------|
D|--0-----x--0--------------3--3--x--3-------------|
 |
 |GTR III
e|-------------------------------------------------|
B|-------------------------------------------------|
G|-------------------------------------------------|
D|-------------------------------------------------|
A|-------------------------------------------------|
D|-------------------------------------------------|

  GTR I,II
e|-------------------------------------------------|
B|-------------------------------------------------|
G|-------------------------------------------------|
D|--------x-----------------------x----------------|
A|--------x-----8-----5-----------x-----8-----5----|
D|--0-----x--0--------------0-----x--0-------------|
 |
 |GTR III
e|-------------------------------------------------|
B|-------------------------------------------------|
G|-------------------------------------------------|
D|-------------------------------------------------|
A|-------------------------------------------------|
D|-------------------------------------------------|

  GTR I,II
e|-------------------------------------------------|
B|-------------------------------------------------|
G|-------------------------------------------------|
D|--------x-----------------------x----------------|
A|--------x-----8-----5-----------x-----3----------|
D|--0-----x--0--------------3--3--x--3-------------|
 |
 |GTR III
e|-------------------------------------------------|
B|---------------------------------------------8-9-|
G|-------------------------------------------10----|
D|-------------------------------------------------|
A|-------------------------------------------------|
D|-------------------------------------------------|

Pre Chorus

  GTR I,II
e|-------------------------------------------------|
B|-------------------------------------------------|
G|-------------------------------------------------|
D|--8----------------------------------------------|
A|--8----------------------------------------------|
D|--8----------------------------------------------|
 |
 |GTR III
e|-------------------------------------------------|
B|-10-9-8--8-9-10-9-8--8-9-10-9-8--8-9-10-9-8--8-9-|
G|-------10----------10----------10----------10----|
D|-------------------------------------------------|
A|-------------------------------------------------|
D|-------------------------------------------------|

  GTR I,II
e|-------------------------------------------------|
B|-------------------------------------------------|
G|-------------------------------------------------|
D|--5----------------------------------------------|
A|--5----------------------------------------------|
D|--5----------------------------------------------|
 |
 |GTR III
e|-------------------------------------------------|
B|-10-9-8--8-9-10-9-8--8-9-10-9-8--8-9-10-9-8--8-9-|
G|-------10----------10----------10----------10----|
D|-------------------------------------------------|
A|-------------------------------------------------|
D|-------------------------------------------------|

  GTR I,II
e|-------------------------------------------------|
B|-------------------------------------------------|
G|-------------------------------------------------|
D|--8----------------------------------------------|
A|--8----------------------------------------------|
D|--8----------------------------------------------|
 |
 |GTR III
e|-------------------------------------------------|
B|-10-9-8--8-9-10-9-8--8-9-10-9-8--8-9-10-9-8--8-9-|
G|-------10----------10----------10----------10----|
D|-------------------------------------------------|
A|-------------------------------------------------|
D|-------------------------------------------------|

  GTR I,II
e|-------------------------------------------------|
B|-------------------------------------------------|
G|-------------------------------------------------|
D|-10----------------------------------------------|
A|-10----------------------------------------------|
D|-10----------------------------------------------|
 |
 |GTR III
e|-----------------------------8-------------------|
B|--8~-------------------8/10----10--8-------------|
G|-------------------------------------10--7~\-----|
D|-------------------------------------------------|
A|-------------------------------------------------|
D|-------------------------------------------------|

Chorus

  GTR I
e|--x-----x-----x-----x--x--x-----x-----x-----x--x-|
B|--3-----3-----3-----3--3--3-----3-----3-----3--3-|
G|--2-----2-----2-----2--2--2-----2-----2-----2--2-|
D|--0-----0-----0-----0--0--0-----0-----0-----0--0-|
A|--0-----0-----0-----0--0--0-----0-----0-----0--0-|
D|-------------------------------------------------|
 |
 |GTR II
e|-------------15----------14----------------------|
B|-------------------------------------15----------|
G|-------------------------------------------------|
D|-------------------------------------------------|
A|-------------------------------------------------|
D|-------------------------------------------------|

  GTR I
e|-------------------------------------------------|
B|-------------------------------------------------|
G|--5-----5-----5-----5--5--5-----5-----5-----5--5-|
D|--5-----5-----5-----5--5--5-----5-----5-----5--5-|
A|--3-----3-----3-----3--3--3-----3-----3-----3--3-|
D|-------------------------------------------------|
 |
 |GTR II
e|-------------------------------------------------|
B|-13----------15----------------------------------|
G|-------------------------------------------------|
D|-------------------------------------------------|
A|-------------------------------------------------|
D|-------------------------------------------------|

  GTR I
e|-------------------------------------------------|
B|-------------------------------------------------|
G|--4-----4-----4-----4--4--4-----4-----4-----4--4-|
D|--4-----4-----4-----4--4--4-----4-----4-----4--4-|
A|--2-----2-----2-----2--2--2-----2-----2-----2--2-|
D|-------------------------------------------------|
 |
 |GTR II
e|-------------15----------14----------------------|
B|-------------------------------------15----------|
G|-------------------------------------------------|
D|-------------------------------------------------|
A|-------------------------------------------------|
D|-------------------------------------------------|

  GTR I
e|-------------------------------------------------|
B|-------------------------------------------------|
G|--3-----3-----3-----3--3--5-----5-----5-----5--5-|
D|--3-----3-----3-----3--3--5-----5-----5-----5--5-|
A|--1-----1-----1-----1--1--3-----3-----3-----3--3-|
D|-------------------------------------------------|
 |
 |GTR II
e|-------------------------------------------------|
B|-13----------15----------------------------------|
G|-------------------------------------------------|
D|-------------------------------------------------|
A|-------------------------------------------------|
D|-------------------------------------------------|

  GTR I
e|--x-----x-----x-----x--x--x-----x-----x-----x--x-|
B|--3-----3-----3-----3--3--3-----3-----3-----3--3-|
G|--2-----2-----2-----2--2--2-----2-----2-----2--2-|
D|--0-----0-----0-----0--0--0-----0-----0-----0--0-|
A|--0-----0-----0-----0--0--0-----0-----0-----0--0-|
D|-------------------------------------------------|
 |
 |GTR II
e|-------------15----------14----------------------|
B|-------------------------------------15----------|
G|-------------------------------------------------|
D|-------------------------------------------------|
A|-------------------------------------------------|
D|-------------------------------------------------|

  GTR I
e|-------------------------------------------------|
B|-------------------------------------------------|
G|--5-----5-----5-----5--5--5-----5-----5-----5--5-|
D|--5-----5-----5-----5--5--5-----5-----5-----5--5-|
A|--3-----3-----3-----3--3--3-----3-----3-----3--3-|
D|-------------------------------------------------|
 |
 |GTR II
e|-------------------------------------------------|
B|-13----------15----------------------------------|
G|-------------------------------------------------|
D|-------------------------------------------------|
A|-------------------------------------------------|
D|-------------------------------------------------|

  GTR I
e|-------------------------------------------------|
B|-------------------------------------------------|
G|--4-----4-----4-----4--4--4-----4-----4-----4--4-|
D|--4-----4-----4-----4--4--4-----4-----4-----4--4-|
A|--2-----2-----2-----2--2--2-----2-----2-----2--2-|
D|-------------------------------------------------|
 |
 |GTR II
e|-------------15----------14----------------------|
B|-------------------------------------15----------|
G|-------------------------------------------------|
D|-------------------------------------------------|
A|-------------------------------------------------|
D|-------------------------------------------------|

  GTR I
e|-------------------------------------------------|
B|-------------------------------------------------|
G|--3-----3-----3-----3--3--5-----5-----5-----5----|
D|--3-----3-----3-----3--3--5-----5-----5-----5----|
A|--1-----1-----1-----1--1--3-----3-----3-----3----|
D|-------------------------------------------------|
 |
 |GTR II
e|-------------------------------------------------|
B|-13----------------------15----------------------|
G|-------------------------------------------------|
D|-------------------------------------------------|
A|-------------------------------------------------|
D|-------------------------------------------------|
 |
 |GTR III
e|-------------------------------------------------|
B|-------------------------------------13-12-10----|
G|--------------------------------/12b---------12b-|
D|-------------------------------------------------|
A|-------------------------------------------------|
D|-------------------------------------------------|

  GTR I
e|--x-----x-----x-----x--x--x-----x-----x-----x--x-|
B|--3-----3-----3-----3--3--3-----3-----3-----3--3-|
G|--2-----2-----2-----2--2--2-----2-----2-----2--2-|
D|--0-----0-----0-----0--0--0-----0-----0-----0--0-|
A|--0-----0-----0-----0--0--0-----0-----0-----0--0-|
D|-------------------------------------------------|
 |
 |GTR II
e|-------------------------------------------------|
B|-------------------------------------------------|
G|-------------------------------------------------|
D|-------------------------------------------------|
A|-------------------------------------------------|
D|-------------------------------------------------|
 |
 |GTR III
e|-------------------------------------------------|
B|-13-12-10---13-12-10---13-12-10---13-12-10-12~13-|
G|---------12b--------12b--------12b---------------|
D|-------------------------------------------------|
A|-------------------------------------------------|
D|-------------------------------------------------|

  GTR I
e|-------------------------------------------------|
B|-------------------------------------------------|
G|--5-----5-----5-----5--5--5-----5-----5-----5--5-|
D|--5-----5-----5-----5--5--5-----5-----5-----5--5-|
A|--3-----3-----3-----3--3--3-----3-----3-----3--3-|
D|-------------------------------------------------|
 |
 |GTR II
e|-------------------------------------------------|
B|-------------------------------------------------|
G|-------------------------------------------------|
D|-------------------------------------------------|
A|-------------------------------------------------|
D|-------------------------------------------------|
 |
 |GTR III
e|------/15-12~------------------------------------|
B|-12-10-------------------------------------------|
G|-------------------------------------------------|
D|-------------------------------------------------|
A|-------------------------------------------------|
D|-------------------------------------------------|

  GTR I
e|-------------------------------------------------|
B|-------------------------------------------------|
G|--4-----4-----4-----4--4--4-----4-----4-----4--4-|
D|--4-----4-----4-----4--4--4-----4-----4-----4--4-|
A|--2-----2-----2-----2--2--2-----2-----2-----2--2-|
D|-------------------------------------------------|
 |
 |GTR II
e|-------------------------------------------------|
B|-------------------------------------------------|
G|-------------------------------------------------|
D|-------------------------------------------------|
A|-------------------------------------------------|
D|-------------------------------------------------|
 |
 |GTR III
e|-------------------------------------------------|
B|-------------------------------------------------|
G|-------------------------------------------------|
D|-------------------------------------------------|
A|-------------------------------------------------|
D|-------------------------------------------------|

  GTR I
e|-------------------------------------------------|
B|-------------------------------------------------|
G|--3-----3-----3-----3--3--5-----5-----5-----5--5-|
D|--3-----3-----3-----3--3--5-----5-----5-----5--5-|
A|--1-----1-----1-----1--1--3-----3-----3-----3--3-|
D|-------------------------------------------------|
 |
 |GTR II
e|-------------------------------------------------|
B|-------------------------------------------------|
G|-------------------------------------------------|
D|-------------------------------------------------|
A|-------------------------------------------------|
D|-------------------------------------------------|
 |
 |GTR III
e|-------------------------------------------------|
B|-------------------------------------------------|
G|-------------------------------------------------|
D|-------------------------------------------------|
A|-------------------------------------------------|
D|-------------------------------------------------|

  GTR I
e|--x-----x-----x-----x--x--x-----x-----x-----x--x-|
B|--3-----3-----3-----3--3--3-----3-----3-----3--3-|
G|--2-----2-----2-----2--2--2-----2-----2-----2--2-|
D|--0-----0-----0-----0--0--0-----0-----0-----0--0-|
A|--0-----0-----0-----0--0--0-----0-----0-----0--0-|
D|-------------------------------------------------|
 |
 |GTR II
e|-------------15----------14----------------------|
B|-------------------------------------15----------|
G|-------------------------------------------------|
D|-------------------------------------------------|
A|-------------------------------------------------|
D|-------------------------------------------------|
 |
 |GTR III
e|-------------------------------------------------|
B|-------------------------------------------------|
G|-------------------------------------------------|
D|-------------------------------------------------|
A|-------------------------------------------------|
D|-------------------------------------------------|

  GTR I
e|-------------------------------------------------|
B|-------------------------------------------------|
G|--5-----5-----5-----5--5--5-----5-----5-----5--5-|
D|--5-----5-----5-----5--5--5-----5-----5-----5--5-|
A|--3-----3-----3-----3--3--3-----3-----3-----3--3-|
D|-------------------------------------------------|
 |
 |GTR II
e|-------------------------------------------------|
B|-13----------15----------------------------------|
G|-------------------------------------------------|
D|-------------------------------------------------|
A|-------------------------------------------------|
D|-------------------------------------------------|
 |
 |GTR III
e|-------------------------------------------------|
B|-------------------------------------------------|
G|-------------------------------------------------|
D|-------------------------------------------------|
A|-------------------------------------------------|
D|-------------------------------------------------|

  GTR I
e|-------------------------------------------------|
B|-------------------------------------------------|
G|--4-----4-----4-----4--4--4-----4-----4-----4--4-|
D|--4-----4-----4-----4--4--4-----4-----4-----4--4-|
A|--2-----2-----2-----2--2--2-----2-----2-----2--2-|
D|-------------------------------------------------|
 |
 |GTR II
e|-------------15----------14----------------------|
B|-------------------------------------15----------|
G|-------------------------------------------------|
D|-------------------------------------------------|
A|-------------------------------------------------|
D|-------------------------------------------------|
 |
 |GTR III
e|-------------------------------------------------|
B|-------------------------------------------------|
G|-------------------------------------------------|
D|-------------------------------------------------|
A|-------------------------------------------------|
D|-------------------------------------------------|

  GTR I
e|-------------------------------------------------|
B|-------------------------------------------------|
G|--3-----3-----3-----3--3--5-----5-----5-----5----|
D|--3-----3-----3-----3--3--5-----5-----5-----5----|
A|--1-----1-----1-----1--1--3-----3-----3-----3----|
D|-------------------------------------------------|
 |
 |GTR II
e|-------------------------------------------------|
B|-13----------------------15----------------------|
G|-------------------------------------------------|
D|-------------------------------------------------|
A|-------------------------------------------------|
D|-------------------------------------------------|
 |
 |GTR III
e|-------------------------------------------------|
B|-------------------------------------------------|
G|-------------------------------------------------|
D|-------------------------------------------------|
A|-------------------------------------------------|
D|-------------------------------------------------|

  GTR I
e|--x----------------------------------------------|
B|--3----------------------------------------------|
G|--2----------------------------------------------|
D|--0----------------------------------------------|
A|--0----------------------------------------------|
D|-------------------------------------------------|
 |
 |GTR II
e|-------------------------------------------------|
B|-------------------------------------------------|
G|-------------------------------------------------|
D|-------------------------------------------------|
A|-------------------------------------------------|
D|-------------------------------------------------|
 |
 |GTR III
e|-------------------------------------------------|
B|-------------------------------------------------|
G|-------------------------------------------------|
D|-------------------------------------------------|
A|-------------------------------------------------|
D|-------------------------------------------------|


| /  slide up
| \  slide down
| h  hammer-on
| p  pull-off
| ~  vibrato
| +  harmonic
| x  Mute note
===============================================================================



            
            
Suggest correction
Creating personal tab
Creating personal tab
You can edit any tab online and save it as your Personal.

You can edit, replace or remove any tab part or add personal notes – all changes will be seen only by you.

Personal tabs can be accessed anytime from any device, even offline.
Learn more »
Give kudos to tab author, rate the tab!
1 2 3 4 5
comments
print report bad tab
2 comments total.
0 reply
shiick 10 Feb 17, 2010 06:11 AM

I've been looking at all your Default tabs, great work!

0 reply
acdcacdc 417 Aug 08, 2010 09:40 AM

good tab but theres no need to rewrite parts that r the same..for example if the second verse doesnt change from the first then just say repeat verse.just some advise for you..good tab but way too long

guest
You may want to rate the tab now too:
select rating
Wanna post a correction for this tab? Suggest correction