Oops, an error
Loading. Please wait.

Battle-Axe bass

version 1
version 1

Whole song

Interactive

1,647 views 1 this week
1 commentread comment
1 2 3 4 5
1 last vote to show rating
add to favorites
×
Save as Personal and add changes to this tab that will be seen only by you. Learn more ›
×
You can save this tab as Personal to edit and correct it or add notes. All changes will be seen only by you. Learn more »
launch autoscroll
font size
0
reset
guitar tuner
edit
Autoscroll
slow
fast
+/-
esc
set tempo
stop
Author
Difficulty
Artist - Deftones
Song - Battle-axe
Album - Deftones
Bassist - Chi
Tabber - Str84ever
Tuning - BEADG - standard 5 string

Probably not how Chi plays it but here it is:

Intro pt 1 - no bass

Intro pt2/chorus/outro pt1.

G|---------------------------------------------------------------------|
D|---------------------------------------------------------------------|
A|---------------------------------------------------------------------|
E|--6-6-6-6-6-6-6-6-6-6-6-6-6-6-6-6------------------------------------|
B|-----------------------------------5-5-5-5-5-5-5-5-5-5-5-5-5-5-5-5-5-|

G|---------------------------------------------------------------------|
D|---------------------------------------------------------------------|
A|---------------------------------------------------------------------|
E|--2-2-2-2-2-2-2-2-2-2-2-2-2-2-2-2------------------------------------|
B|-----------------------------------4-4-4-4-4-4-4-4-4-4-4-4-4-4-4-4-4-|

Intro part 3/verse/outro pt2.

G|------------------------------------------------------------|
D|------------------------------------------------------------|
A|------------------------------------------------------------|
E|-6-6--6-6---6-6---6-6-6-6---6-6---6-6-6-6---6-6---6-6-6-6---|
B|-----------------------------------------------------------2|

Order:
Intro pt 1
Intro pt 2
Intro pt 3
Verse
Chorus
Verse
Chorus
Outro pt 1
Outro pt 2

That's it

            
            
Suggest correction
Creating personal tab
Creating personal tab
You can edit any tab online and save it as your Personal.

You can edit, replace or remove any tab part or add personal notes – all changes will be seen only by you.

Personal tabs can be accessed anytime from any device, even offline.
Learn more »
Give kudos to tab author, rate the tab!
1 2 3 4 5
comments
print report bad tab
1 comment total.
0 reply
str84ever 684 Feb 11, 2009 04:13 AM

Looking back on this tab i've realised that on Intro pt2/chorus/outro pt1 the 2nd fret on E should be 2nd fret on B, i obviously wrote it down wrong. So change F# to C#.

guest
You may want to rate the tab now too:
select rating
Wanna post a correction for this tab? Suggest correction