Oops, an error
Loading. Please wait.
We have an official Be Quiet And Drive tab made by UG professional guitarists. Check out the tab »
×
47,256 views 108 this week
6 commentsread comments
1 2 3 4 5
x 17
add to favorites
×
Save as Personal and add changes to this tab that will be seen only by you. Learn more ›
×
You can save this tab as Personal to edit and correct it or add notes. All changes will be seen only by you. Learn more »
launch autoscroll
font size
0
reset
how to read this tab
guitar tuner
backing track
0:00
0:00
edit
Autoscroll
slow
fast
+/-
esc
set tempo
stop
Author
Unregistered
[Verse 1]
e|--------------------------|
B|--------------------------|
G|--11----------11----------|
D|--11----------11----------|
A|--9------------0----------|
E|--9------------0----------|

e|----------0----------0------|
B|-----------------------10---|
G|---11--11----11--11-------11|
D|---11------------0----------|
A|---9-----9--9----0----------|
E|---9-------------0----------|

(Then Strum)
"I dressed you in her clothes
Now drive me far" 

e|----------------------------|
B|----------------------------|
G|----11----11----------------|
D|----9-----0-----------------|
A|----9-----0-----------------|
E|----9-----0-----------------|

When Repeating "Away"
  *=Repeat as Necassary
e|----------------------------|
B|----------------------------|
G|----7*------7*--------------|
D|----7*------7*--------------|
A|----5*------5*--------------|
E|----0*------5*--------------|

************************************

| *  Natural harmonic

************************************

            
            
Suggest correction
Creating personal tab
Creating personal tab
You can edit any tab online and save it as your Personal.

You can edit, replace or remove any tab part or add personal notes – all changes will be seen only by you.

Personal tabs can be accessed anytime from any device, even offline.
Learn more »
comments
print report bad tab
6 comments total. Showing first comments.
0 reply
vampire-lestat 10 May 17, 2002 08:00 PM

that is perfect. ive never heard one that came so close. in fact, i believe it is actualley the EXACT version they use!

+1 reply
LowItalian 10 Dec 15, 2004 07:00 PM

i think the bridge (AWAY) part at the end sounds better

(777900) and (000900)

Just my opinion, try it out

+1 reply
LowItalian 10 Dec 15, 2004 07:00 PM

i was also messing with the pick part, try this:

e--------------------------------------------------0---------------
B------------------------------------------------------10----------
G--11------11------9-------11------11----------------------11------
d--9---9-------9-------9-------9---0-------------------------------
A--9 ------------------------------0-------------------------------
D--9-------------------------------0-------------------------------

guest
Wanna post a correction for this tab? Suggest correction