Oops, an error
Loading. Please wait.
We have an official Change In The House Of Flies tab made by UG professional guitarists. Check out the tab »
×
5,515 views 54 this week
3 commentsread comments
1 2 3 4 5
x 3
add to favorites
×
Save as Personal and add changes to this tab that will be seen only by you. Learn more ›
×
You can save this tab as Personal to edit and correct it or add notes. All changes will be seen only by you. Learn more »
launch autoscroll
font size
0
reset
how to read this tab
guitar tuner
edit
Autoscroll
slow
fast
+/-
esc
set tempo
stop
Author
band: deftones
album: white pony
song: change (in the house of flies)
     tabber: dicer4
     e-mail: dicer4@msn.com or xX_Rise_Inside_Xx@hotmail.com
tuning: drop c (cgcfad

legend:
() strum not lightly


intro/verse

d|------------------------------------------|
a|------------------------------------------|
f|-------10--------10----10--10-------------|
c|-------x---------x-----x---x--------------|
g|-8-8-8-8-8-8-8-8-8-8-8-8-8-8-8------------|
c|-0-0-0-0-0-0-0-0-0-0-0-0-0-0-8------------|


d|------------------------------------------------|
a|------------------------------------------------|
f|------------------------------------------------|
c|-5-5-0--8-8-8--7-7--8-8-8--7-7--0-0-------------|
g|-5-5-0--6-6-6--5-5--6-6-6--5-5--0-0-------------|
c|-5-5-0--0-0-0--0-0--0-0-0--0-0--0-0-------------|

choures
d|------------------------------------------------|
a|------------------------------------------------|
f|-2-2-2-2-2-2-2-2-2--10-10-10-10-10-10-10-10-10--|
c|-0-0-0-0-0-0-0-0-0--8--8--8--8--8--8--8--8--8---|
g|-0-0-0-0-0-0-0-0-0--8--8--8--8--8--8--8--8--8---|
c|-1-1-1-1-1-1-1-1-1--9--9--9--9--9--9--9--9--9---|

bridge
d|------------------------------------------------|
a|------------------------------------------------|
f|------------------------------------------------|
c|-3-3-3-3-3-3-3-3-3-3-3-3--0-0-0-0-0-0-0-0-0-0---|
g|-3-3-3-3-3-3-3-3-3-3-3-3--0-0-0-0-0-0-0-0-0-0---|
c|-3-3-3-3-3-3-3-3-3-3-3-3--1-1-1-1-1-1-1-1-1-1---|

interlude
d|------------------------------------------------|
a|------------------------------------------------|
f|------------------------------------------------|
c|---------8-8-8--7-7-7---------7-----------------|
g|-----------------------8-8-8----8---------------|
c|-5-5-5-5--------------------------0-------------|

outro (you can hear this at the end of the last choures)
d|------------------------------------------------|
a|------------------------------------------------|
f|(5)(5)(5)------(2)(2)(2)------------------------|
c|-3--3--3--------0--0--0-------------------------|
g|-3--3--3--------0--0--0-------------------------|
c|-4--4--4--------1--1--1-------------------------|







            
            
Suggest correction
Creating personal tab
Creating personal tab
You can edit any tab online and save it as your Personal.

You can edit, replace or remove any tab part or add personal notes – all changes will be seen only by you.

Personal tabs can be accessed anytime from any device, even offline.
Learn more »
Give kudos to tab author, rate the tab!
1 2 3 4 5
comments
print report bad tab
3 comments total.
-1 reply
dicer4 325 Apr 01, 2006 05:19 AM

A CORRECTION

() strume notes lightly

+1 reply
Wackstrings 182 Dec 23, 2006 12:21 PM

Derek. Hows rehab?

E-Tard.

You still owe me the money you stole from me.

-1 reply
dicer4 325 Nov 28, 2007 05:04 AM

bram your f u c k ed

guest
You may want to rate the tab now too:
select rating
Wanna post a correction for this tab? Suggest correction