Oops, an error
Loading. Please wait.

Doomed User tab

version 1
version 1

Whole song

Interactive

1,885 views 3 this week
3 commentsread comments
1 2 3 4 5
x 3
add to favorites
×
Save as Personal and add changes to this tab that will be seen only by you. Learn more ›
×
You can save this tab as Personal to edit and correct it or add notes. All changes will be seen only by you. Learn more »
launch autoscroll
font size
0
reset
how to read this tab
guitar tuner
edit
Autoscroll
slow
fast
+/-
esc
set tempo
stop
Author
-------------------------------------------------------------------------------
                             Doomed User - Deftones
-------------------------------------------------------------------------------
Tabbed by: xbloodycape
E-mail: quin@qschurman.net

Tuning: F# Standard (F# B E A D G B E)


[Intro]

E |------------------------------------------------|
B |------------------------------------------------|
G |------------------------------------------------|
D |------------------------------------------------|
A |------------8-8-8-8-8-8-----------8-8-8-8-8-8---|
E |------------8-8-8-8-8-8-----------8-8-8-8-8-8---|
B |------------6-6-6-6-6-6-----------6-6-6-6-6-6---|
F#|---6-4-1-0----------------6-4-1-0---------------|


[Verse]

E |------------------------------------------------------------------|
B |------------------------------------------------------------------|
G |------------------------------------------------------------------|
D |------------------------------------------------------------------|
A |---5-5-5-5-5-5-5/7-7b^--5-5-5-5-5-5-5/7-7b^-7b^--3-3-3-3----------|
E |---5-5-5-5-5-5-5/7-7b^--5-5-5-5-5-5-5/7-7b^-7b^--3-3-3-3--3-3-3---|
B |---3-3-3-3-3-3-3/5-5b^--3-3-3-3-3-3-3/5-5b^-5b^--1-1-1-1--3-3-3---|
F#|----------------------------------------------------------1-1-1---|
        . .   . .            . .   . .

          
[Chorus]

E |---------------------------------|
B |---------------------------------|
G |---------------------------------|
D |---------------------------------|
A |---5-5-5-5--3-3--7-7-7-7-7-7-7---|
E |---5-5-5-5--3-3--7-7-7-7-7-7-7---|
B |---3-3-3-3--1-1--5-5-5-5-5-5-5---| x2
F#|---------------------------------|

E |-------------------------------------------------------------------------------|
B |-------------------------------------------------------------------------------|
G |-------------------------------------------------------------------------------|
D |-------------------------------------------------------------------------------|
A |---10-10-10-10-10-10--12-12-12-12-12-12--11-11-11-11-11-11-11-11-11-11-11-11---|
E |---10-10-10-10-10-10--12-12-12-12-12-12--11-11-11-11-11-11-11-11-11-11-11-11---|
B |---8--8--8--8--8--8---10-10-10-10-10-10--9--9--9--9--9--9--9--9--9--9--9--9----|
F#|-------------------------------------------------------------------------------|


[BRIDGE/OUTRO]

E |------------3*~~~~~~~~------------5*~~~~~~~------------3*~~~~~---|
B |------------3*~~~~~~~~------------5*~~~~~~~------------3*~~~~~---|
G |------------3*~~~~~~~~------------5*~~~~~~~------------3*~~~~~---|
D |-----------------------------------------------------------------|
A |-----------------------------------------------------------------|
E |-----------------------------------------------------------------|
B |-----------------------------------------------------------------|
F#|---6-4-1-0----------------6-4-1-0--------------6-4-1-0-----------|

E |---------------------------------5*~~~~~~~~---| DIVEBOMB ON OUTRO!
B |---------------------------------5*~~~~~~~~---|
G |---------------------------------5*~~~~~~~~---|
D |---------------------------------5*~~~~~~~~---|
A |----------------------------------------------|
E |----------------------------------------------|
B |----------------------------------------------| 
F#|---6-4-1-0--10-8-6-0--12-10-8-0---------------|



************************************

| /  Slide up

************************************

            
            
Suggest correction
Creating personal tab
Creating personal tab
You can edit any tab online and save it as your Personal.

You can edit, replace or remove any tab part or add personal notes – all changes will be seen only by you.

Personal tabs can be accessed anytime from any device, even offline.
Learn more »
Give kudos to tab author, rate the tab!
1 2 3 4 5
comments
print report bad tab
3 comments total.
0 reply
jakub.pristoupi 10 Mar 19, 2016 12:39 PM, edited on March 21 2016, 09:41 am

It's supposed to be in F# standard. Steph said he uses that tuning except for a few songs in Drop E on the new album.

0 reply
Schurman 100 Mar 20, 2016 05:37 PM

Fixed, thanks. The intro is actually correct now!

0 reply
joel94 154 Mar 24, 2016 07:09 PM

the intro and bridge sound closer like this

Intro
E |------------------------------------------------|
B |------------------------------------------------|
G |------------------------------------------------|
D |------------------------------------------------|
A |------------8-8-8-8-8-8-----------8-8-8-8-8-8---|
E |------------8-8-8-8-8-8-----------8-8-8-8-8-8---|
B |------------6-6-6-6-6-6-----------6-6-6-6-6-6---|
F#|---6-5-1-0----------------6-5-1-0---------------|

Bridge
E |--------------------------------|
B |--------------------------------|
G |--------------------------------|
D |--------------------------------|
A |--------------------------------|
E |--------------------------------|
B |-------------6-5----8-7---------|
F#|---6-5-1-0------6-5----8-7------|

guest
You may want to rate the tab now too:
select rating
Wanna post a correction for this tab? Suggest correction