Oops, an error
Loading. Please wait.

Doomed User tab

version 2
version 2

Whole song

Interactive

2,824 views 18 this week
no commentswrite comment
1 2 3 4 5
x 11
add to favorites
×
Save as Personal and add changes to this tab that will be seen only by you. Learn more ›
×
You can save this tab as Personal to edit and correct it or add notes. All changes will be seen only by you. Learn more »
launch autoscroll
font size
0
reset
how to read this tab
guitar tuner
edit
Autoscroll
slow
fast
+/-
esc
set tempo
stop
Author
Difficulty
|--------------------------------------------------------------------------------------------------------|
|                                         DEFTONES - DOOMED USER                                         |
|                                           Album: GORE (2016)                                           |
|                                            Tab by Godspeedy                                            |
|--------------------------------------------------------------------------------------------------------|

                   If you have questions or corrections feel free to send me a message:
                                    https://www.facebook.com/Godspeedy14
                     
                 Also check out my Youtube channel: http://www.youtube.com/user/Godspeedy14

                        *************************************************************
                        * NOTE: If you need a playthrough, check out my cover here: *
                        *       https://www.youtube.com/watch?v=PaQmttzL8zA         *
                        *************************************************************

                                       Tuning: 8 strings F#BEADGBE
                                                    
*********************************************GUITAR NOTATIONS*********************************************
*                                                                                                        *
*                                      | *   palm mute           |                                       *
*                                      | s   slide               |                                       *
*                                      | s\  slide downwards     |                                       *
*                                      | ~   vibrato             |                                       *
*                                      | ``  natural harmonics   |                                       *
*                                                                                                        *
**********************************************************************************************************

|--------------------------------------------------------------------------------------------------------|
|                                          INTRO (00:00-00:16)                                           |
|--------------------------------------------------------------------------------------------------------|

Guitars 1 and 2 (w/ dist)

 E|------------------|------------------------------|
 B|------------------|------------------------------|
 G|------------------|------------------------------|
 D|------------------|------------------------------| x4
 A|---------------8--|-8-----------------8---8---8--|
 E|---------------8--|-8-----------------8---8---8--|
 B|---------------6--|-6-----------------6---6---6--|
F#|-6--5---1---0-----|-----6--5---1---0-------------|

|--------------------------------------------------------------------------------------------------------|
|                                          VERSE (00:16-00:58)                                           |
|--------------------------------------------------------------------------------------------------------|

Guitars 1 and 2 (w/ dist)

 E|--------------------------------|---------------------------------|------------------------|
 B|--------------------------------|---------------------------------|------------------------|
 G|--------------------------------|---------------------------------|------------------------|
 D|--------------------------------|---------------------------------|------------------------| x4
 A|-12-0--0--12-0--0--12s14-14--14~|~12-0--0--12-0--0--12s14-14~~14s\|-10---10--10-10--5---5--|
 E|-10-0--0--10-0--0--10s12-12--12~|~10-0--0--10-0--0--10s12-12~~12s\|-8----8---8--8---3---3--|
 B|--------------------------------|---------------------------------|------------------------|
F#|--------------------------------|---------------------------------|------------------------|
       *  *     *  *                    *  *     *  *                  

 E|------------------|------------------------------|
 B|------------------|------------------------------|
 G|------------------|------------------------------|
 D|------------------|------------------------------| x4
 A|---------------8--|-8-----------------8---8---8--|
 E|---------------8--|-8-----------------8---8---8--|
 B|---------------6--|-6-----------------6---6---6--|
F#|-6--5---1---0-----|-----6--5---1---0-------------|

|--------------------------------------------------------------------------------------------------------|
|                                          CHORUS (00:58-01:20)                                          |
|--------------------------------------------------------------------------------------------------------|

Guitars 1 and 2 (w/ dist)

 E|----------------------|------------------------|----------------------------|
 B|----------------------|------------------------|----------------------------|
 G|----------------------|------------------------|----------------------------|
 D|----------------------|------------------------|----------------------------| x2
 A|-5----5----5---3---3--|s7----7----7----7--7--7-|-7----7--7--7--7----7--7--7-|
 E|-5----5----5---3---3--|s7----7----7----7--7--7-|-7----7--7--7--7----7--7--7-|
 B|-3----3----3---1---1--|s5----5----5----5--5--5-|-5----5--5--5--5----5--5--5-|
F#|----------------------|------------------------|----------------------------|

 E|-----------------------------|-----------------------------|
 B|-----------------------------|-----------------------------|
 G|-----------------------------|-----------------------------|
 D|-----------------------------|-----------------------------|
 A|-10---10-10-10-10---10-10-10-|-12---12-12-12-12---12-12-12-|
 E|-10---10-10-10-10---10-10-10-|-12---12-12-12-12---12-12-12-|
 B|-8----8--8--8--8----8--8--8--|-10---10-10-10-10---10-10-10-|
F#|-----------------------------|-----------------------------|

 E|-----------------------------|-----------------------------|
 B|-----------------------------|-----------------------------|
 G|-----------------------------|-----------------------------|
 D|-----------------------------|-----------------------------|
 A|-11---10-10-10-11---11-10-10-|-11---10-10-10-11---10-10-10-|
 E|-11---11-11-11-11---11-11-11-|-11---11-11-11-11---11-11-11-|
 B|-9----9--9--9--9----9--9--9--|-9----9--9--9--9----9--9--9--|
F#|-----------------------------|-----------------------------|

|--------------------------------------------------------------------------------------------------------|
|                                         VERSE 2 (01:20-02:02)                                          |
|--------------------------------------------------------------------------------------------------------|
                                              same as VERSE
|--------------------------------------------------------------------------------------------------------|
|                                         CHORUS 2 (02:02-02:32)                                         |
|--------------------------------------------------------------------------------------------------------|

Guitars 1 and 2 (w/ dist)

 E|----------------------|------------------------|----------------------------|
 B|----------------------|------------------------|----------------------------|
 G|----------------------|------------------------|----------------------------|
 D|----------------------|------------------------|----------------------------| x2
 A|-5----5----5---3---3--|s7----7----7----7--7--7-|-7----7--7--7--7----7--7--7-|
 E|-5----5----5---3---3--|s7----7----7----7--7--7-|-7----7--7--7--7----7--7--7-|
 B|-3----3----3---1---1--|s5----5----5----5--5--5-|-5----5--5--5--5----5--5--5-|
F#|----------------------|------------------------|----------------------------|

 E|-----------------------------|-----------------------------|
 B|-----------------------------|-----------------------------|
 G|-----------------------------|-----------------------------|
 D|-----------------------------|-----------------------------|
 A|-10---10-10-10-10---10-10-10-|-12---12-12-12-12---12-12-12-|
 E|-10---10-10-10-10---10-10-10-|-12---12-12-12-12---12-12-12-|
 B|-8----8--8--8--8----8--8--8--|-10---10-10-10-10---10-10-10-|
F#|-----------------------------|-----------------------------|\
                                                                x2
 E|-----------------------------|-----------------------------|/
 B|-----------------------------|-----------------------------|
 G|-----------------------------|-----------------------------|
 D|-----------------------------|-----------------------------|
 A|-11---10-10-10-11---11-10-10-|-11---10-10-10-11---10-10-10-|
 E|-11---11-11-11-11---11-11-11-|-11---11-11-11-11---11-11-11-|
 B|-9----9--9--9--9----9--9--9--|-9----9--9--9--9----9--9--9--|
F#|-----------------------------|-----------------------------|

|--------------------------------------------------------------------------------------------------------|
|                                          BRIDGE (02:32-03:05)                                          |
|--------------------------------------------------------------------------------------------------------|

Guitars 1 and 2 (w/ dist)

 E|--------------`4`--|-----|-----|-----|--------------`3`--|-----|-----|-----|
 B|--------------`4`--|-----|-----|-----|--------------`3`--|-----|-----|-----|
 G|--------------`4`--|-----|-----|-----|--------------`3`--|-----|-----|-----|
 D|--------------`4`--|-----|-----|-----|--------------`3`--|-----|-----|-----|
 A|--------------`4`--|-----|-----|-----|--------------`3`--|-----|-----|-----|
 E|--------------`4`--|-----|-----|-----|--------------`3`--|-----|-----|-----|
 B|-------------------|-----|-----|-----|-------------------|-----|-----|-----|
F#|-6--5---1---0------|-----|-----|-----|-6--5---1---0------|-----|-----|-----|

 E|--------------`2`--|-----|-----|-----|--------------------|--------------------|------`3`-----|
 B|--------------`2`--|-----|-----|-----|--------------------|--------------------|------`3`-----|
 G|--------------`2`--|-----|-----|-----|--------------------|--------------------|------`3`-----|
 D|--------------`2`--|-----|-----|-----|--------------------|--------------------|------`3`-----|
 A|--------------`2`--|-----|-----|-----|--------------------|--------------------|------`3`-----|
 E|--------------`2`--|-----|-----|-----|--------------------|--------------------|------`3`-----|
 B|-------------------|-----|-----|-----|---------------6--5-|-5--1---0--8--7---2-|-2--0---------|
F#|-6--5---1---0------|-----|-----|-----|-6--5---1---0-------|--------------------|--------------|

|--------------------------------------------------------------------------------------------------------|
|                                         CHORUS 3 (03:05-03:57)                                         |
|--------------------------------------------------------------------------------------------------------|

Guitars 1 and 2 (w/ dist)

 E|----------------------|------------------------|----------------------------|
 B|----------------------|------------------------|----------------------------|
 G|----------------------|------------------------|----------------------------|
 D|----------------------|------------------------|----------------------------| x2
 A|-5----5----5---3---3--|s7----7----7----7--7--7-|-7----7--7--7--7----7--7--7-|
 E|-5----5----5---3---3--|s7----7----7----7--7--7-|-7----7--7--7--7----7--7--7-|
 B|-3----3----3---1---1--|s5----5----5----5--5--5-|-5----5--5--5--5----5--5--5-|
F#|----------------------|------------------------|----------------------------|

 E|-----------------------------|-----------------------------|
 B|-----------------------------|-----------------------------|
 G|-----------------------------|-----------------------------|
 D|-----------------------------|-----------------------------|
 A|-10---10-10-10-10---10-10-10-|-12---12-12-12-12---12-12-12-|
 E|-10---10-10-10-10---10-10-10-|-12---12-12-12-12---12-12-12-|
 B|-8----8--8--8--8----8--8--8--|-10---10-10-10-10---10-10-10-|
F#|-----------------------------|-----------------------------|

 E|-----------------------------|-----------------------------|
 B|-----------------------------|-----------------------------|
 G|-----------------------------|-----------------------------|
 D|-----------------------------|-----------------------------|
 A|-11---10-10-10-11---11-10-10-|-11---10-10-10-11---10-10-10-|
 E|-11---11-11-11-11---11-11-11-|-11---11-11-11-11---11-11-11-|
 B|-9----9--9--9--9----9--9--9--|-9----9--9--9--9----9--9--9--|
F#|-----------------------------|-----------------------------|

 E|----------------------|------------------------|----------------------------|
 B|----------------------|------------------------|----------------------------|
 G|----------------------|------------------------|----------------------------|
 D|----------------------|------------------------|----------------------------| x2
 A|-5----5----5---3---3--|s7----7----7----7--7--7-|-7----7--7--7--7----7--7--7-|
 E|-5----5----5---3---3--|s7----7----7----7--7--7-|-7----7--7--7--7----7--7--7-|
 B|-3----3----3---1---1--|s5----5----5----5--5--5-|-5----5--5--5--5----5--5--5-|
F#|----------------------|------------------------|----------------------------|

 E|-----------------------------|-----------------------------|
 B|-----------------------------|-----------------------------|
 G|-----------------------------|-----------------------------|
 D|-----------------------------|-----------------------------|
 A|-10---10-10-10-10---10-10-10-|-12---12-12-12-12---12-12-12-|
 E|-10---10-10-10-10---10-10-10-|-12---12-12-12-12---12-12-12-|
 B|-8----8--8--8--8----8--8--8--|-10---10-10-10-10---10-10-10-|
F#|-----------------------------|-----------------------------|\
                                                                x2
 E|-----------------------------|-----------------------------|/
 B|-----------------------------|-----------------------------|
 G|-----------------------------|-----------------------------|
 D|-----------------------------|-----------------------------|
 A|-11---10-10-10-11---11-10-10-|-11---10-10-10-11---10-10-10-|
 E|-11---11-11-11-11---11-11-11-|-11---11-11-11-11---11-11-11-|
 B|-9----9--9--9--9----9--9--9--|-9----9--9--9--9----9--9--9--|
F#|-----------------------------|-----------------------------|

|--------------------------------------------------------------------------------------------------------|
|                                          OUTRO (03:57-04:27)                                           |
|--------------------------------------------------------------------------------------------------------|

Guitars 1 and 2 (w/ dist)

 E|--------------`3`--|-----|-----|-----|--------------`2`--|-----|-----|-----|
 B|--------------`3`--|-----|-----|-----|--------------`2`--|-----|-----|-----|
 G|--------------`3`--|-----|-----|-----|--------------`2`--|-----|-----|-----|
 D|--------------`3`--|-----|-----|-----|--------------`2`--|-----|-----|-----|
 A|--------------`3`--|-----|-----|-----|--------------`2`--|-----|-----|-----|
 E|--------------`3`--|-----|-----|-----|--------------`2`--|-----|-----|-----|
 B|-------------------|-----|-----|-----|-------------------|-----|-----|-----|
F#|-6--5---1---0------|-----|-----|-----|-6--5---1---0------|-----|-----|-----|

 E|--------------------|--------------------|------`3`-----|
 B|--------------------|--------------------|------`3`-----|
 G|--------------------|--------------------|------`3`-----|
 D|--------------------|--------------------|------`3`-----|
 A|--------------------|--------------------|------`3`-----|
 E|--------------------|--------------------|------`3`-----|
 B|---------------6--5-|-5--1---0--8--7---2-|-2--0---------|
F#|-6--5---1---0-------|--------------------|--------------|


            
            
Suggest correction
Creating personal tab
Creating personal tab
You can edit any tab online and save it as your Personal.

You can edit, replace or remove any tab part or add personal notes – all changes will be seen only by you.

Personal tabs can be accessed anytime from any device, even offline.
Learn more »
comments
print report bad tab
guest
You may want to rate the tab now too:
select rating
Wanna post a correction for this tab? Suggest correction