Oops, an error
Loading. Please wait.

Engine Number 9 bass

version 2
version 2

Whole song

Interactive

2,344 views 1 this week
1 commentread comment
1 2 3 4 5
1 last vote to show rating
add to favorites
×
Save as Personal and add changes to this tab that will be seen only by you. Learn more ›
×
You can save this tab as Personal to edit and correct it or add notes. All changes will be seen only by you. Learn more »
launch autoscroll
font size
0
reset
guitar tuner
edit
Autoscroll
slow
fast
+/-
esc
set tempo
stop
Author
Artist: Deftones
Title: Engine No. 9
Album: Adrenaline
Tuning: Standard (EADG)
Corrected By: Daniel Mancha

there were just a bunch of parts that were wrong with the old one.

//=slide down

Intro:

G|------------||play this at the end of the guitar
D|------------||intro then fo right into
A|------------||riff 1
E|-12///////--||

Riff 1:

G|--------------------------------|--------------------------------||
D|--------------------------------|--------------------------------||
A|-----------------------------2--|-----------------------------0--||
E|-2-3-2-0-2-3-2-0-2-3-2-0-2-3----|-2-3-2-0-2-3-2-0-2-3-2-0-2-3----|| x2

Riff 2:

G|------0------0------0------0--------------------||
D|------0------0------0------0--------------------||
A|------0------0------0------0--------------------||
E|-2-2----2-2----2-2----2-2----6--6-6-5--5-3-5-3--|| x2

Play Riff 1 x6

Play Riff 2 x2

Rest 1 measure (just drums)

Play Riff 1 x4

Play Riff 2 x3

Bridge:

G|----------------------------||
D|----------------------------||
A|----------------------------|| x4 with distortion then
E|-2--0-2--0-2--0-2--2-5-6-0--|| x4 without

Riff 3:

G|---------------------------||
D|---------------------------||
A|---------------------------||
E|-2-3--0-2-0-2-0-2-3-5-6-0--||  x8

Interlude:

G|--------------------------||
D|--------------------------||
A|--------------------------||
E|-1-1-1-1-1-1-1-1-1-1-1-1--||   x1

Play Riff 2 x4

Then end with a

E|--2--||

That's it!

            
            
Suggest correction
Creating personal tab
Creating personal tab
You can edit any tab online and save it as your Personal.

You can edit, replace or remove any tab part or add personal notes – all changes will be seen only by you.

Personal tabs can be accessed anytime from any device, even offline.
Learn more »
Give kudos to tab author, rate the tab!
1 2 3 4 5
comments
print report bad tab
1 comment total.
0 reply
Covin 30 Nov 23, 2006 07:23 AM

really good tab

guest
You may want to rate the tab now too:
select rating
Wanna post a correction for this tab? Suggest correction