Oops, an error
Loading. Please wait.

Minus Blindfold bass

version 3
version 3

Whole song

Interactive

492 views 1 this week
no commentswrite comment
1 2 3 4 5
3 more votes to show rating
add to favorites
×
Save as Personal and add changes to this tab that will be seen only by you. Learn more ›
×
You can save this tab as Personal to edit and correct it or add notes. All changes will be seen only by you. Learn more »
launch autoscroll
font size
0
reset
guitar tuner
edit
Autoscroll
slow
fast
+/-
esc
set tempo
stop
Author
Deftones - Minus Blindfold Bass Tab

Tuning - Standard
Fundamental Note - E

Legend:
h - hammer
() - let ring
/ - slide upward
x - ghost note
S - slap
P - pop


Verse:
|---------------|
|---------------| n times
|-------------2-|
|-0h2h3-0h2h3---|


Post Verse: (not present on all verses see sequence below)
|-----------|
|-----------|
|-----------|
|-/12-12-12-|


Pre Chorus: (original)
|---------------|
|---------------| 4 times
|---------------|
|-0-0--0-0------|


Pre Chorus: (my own version)
|---------------| 
|----------x-2--| 4 times
|---------------|
|-0-0--0-0--x---|
  S S  S S PSP

NOTE: you have to be very fast in those ghost notes.


Chorus:
|-----------------------------------|         |-----|
|-----------------------------------| 4 times |-----|
|-------------2---------------------|         |-----|
|-0-2-2-0-2-3---3-3-0-0-2-2-0-2-3-4-|         |-(0)-|


Bridge: (when guitar goes flanger)
|------------------|
|------------------|
|------------------|
|-0-0-0-0-0-0-0-0--|


Last Verse: (when guitar goes muting)
|-------|        |-----------|         |-------|
|-------| 1 time |-----------| n times |-------| 1 time
|-----1-|        |---------1-|         |-------|
|-1-3---|        |-1-111-33--|         |-1-(0)-|

Outro:
|-------------------------------------|
|-------------------------------------|
|-------------------------------------|
|-00-0-0---00-0-0-----00-0-0---00-0-0-|

(pause as drum rolls)

|-------------------------------------|
|-------------------------------------|
|-------------------------------------|
|-00-0-0---00-0-0-----00-0-0---00-0-0-|

Outro: (my version)
|-------------------------------------|
|--------2-------------------2--------|
|-----------------(2)-----------------|
|-00-0-0---00-0-0-----00-0-0---00-0-0-|
  SS S S P SS S S  P  SS S S P SS S S

(pause as drum rolls)

|--------------------------------------|
|--------2-------------------2---2-----|
|-----------------(2)----------------2-|
|-00-0-0---00-0-0-----00-0-0---0---0---|
  SS S S P SS S S  P  SS S S P S P S P

Sequence:
---intro---
verse with post verse
chorus
-----------
verse
pre chorus
verse with post verse
chorus
verse
pre chorus
verse with post verse
chorus
bridge
last verse
pause
chorus
outro

That's it! I believe it's 99% accurate :) Enjoy \m/

~fatalcough

PS
Comments? brucebillb@yahoo.com
Please rate! :)

            
            
Suggest correction
Creating personal tab
Creating personal tab
You can edit any tab online and save it as your Personal.

You can edit, replace or remove any tab part or add personal notes – all changes will be seen only by you.

Personal tabs can be accessed anytime from any device, even offline.
Learn more »
Give kudos to tab author, rate the tab!
1 2 3 4 5
comments
print report bad tab
guest
You may want to rate the tab now too:
select rating
Wanna post a correction for this tab? Suggest correction