Oops, an error
Loading. Please wait.

Needles And Pins bass

version 1
version 1

Whole song

Interactive

2,994 views 1 this week
1 commentread comment
1 2 3 4 5
3 more votes to show rating
add to favorites
×
Save as Personal and add changes to this tab that will be seen only by you. Learn more ›
×
You can save this tab as Personal to edit and correct it or add notes. All changes will be seen only by you. Learn more »
launch autoscroll
font size
0
reset
guitar tuner
edit
Autoscroll
slow
fast
+/-
esc
set tempo
stop
Author
Difficulty
Artist - Deftones
Song - Needles and Pins
Album - Deftones
Bassist - Needles and Pins
Tabber - Str84ever
Tuning - BEADG

I worked it out on my six string and this is how i play it, probably not how Chi plays 
but sounds good to me.

Intro - No bass

Verse 1 - No bass

Chorus 1
G|------------------------------|
D|------------------------------|
A|------------------------------|
E|------------------------------|
B|-6-6-6-6--3-3-3-3--7-7-7-7-7--|

Verse 2 - starts half way through

G|------------------------------|
D|------------------------------|
A|------------------------------|
E|------------------------------|
B|-7-7-7-7--7-7--7-7--7-7-7-7---|

Chorus 2
G|------------------------------|
D|------------------------------|
A|------------------------------|
E|------------------------------|
B|-6-6-6-6--3-3-3-3--7-7-7-7-7--|

Interlude
G|------------------------------|
D|------------------------------|
A|------------------------------|
E|-----------6--6-6--6-6-6------|
B|-7-7-7--7---------------------|

Chorus 3
G|------------------------------|
D|------------------------------|
A|------------------------------|
E|------------------------------|
B|-6-6-6-6--3-3-3-3--7-7-7-7-7--|

Outro - I just play around with interlude riff.

G|------------------------------|
D|------------------------------|
A|------------------------------|
E|----------6--6-6---6-6-6----6-|
B|-7-7-7-7---------7--------7---|

That's it, simple enough

            
            
Suggest correction
Creating personal tab
Creating personal tab
You can edit any tab online and save it as your Personal.

You can edit, replace or remove any tab part or add personal notes – all changes will be seen only by you.

Personal tabs can be accessed anytime from any device, even offline.
Learn more »
Give kudos to tab author, rate the tab!
1 2 3 4 5
comments
print report bad tab
1 comment total.
0 reply
str84ever 684 Jul 15, 2008 03:31 AM

lol bassist needles and pins - Chi ^^

guest
You may want to rate the tab now too:
select rating
Wanna post a correction for this tab? Suggest correction