Oops, an error
Loading. Please wait.

Phantom Bride tab

version 1
version 1

Whole song

Interactive

6,307 views 42 this week
2 commentsread comments
1 2 3 4 5
x 6
add to favorites
×
Save as Personal and add changes to this tab that will be seen only by you. Learn more ›
×
You can save this tab as Personal to edit and correct it or add notes. All changes will be seen only by you. Learn more »
launch autoscroll
font size
0
reset
how to read this tab
guitar tuner
edit
Autoscroll
slow
fast
+/-
esc
set tempo
stop
  Deftones - Phantom Bride (from Gore)

  Tuning
  Drop C - CGCFAd

  Symbols
  h = hammer on
  p = pull off
  b = bend to
  r = bend release to
  ~ = vibrato
  V = tremolo bar down
  / = slide


 [VERSE]

  Figure A
d|----------------------------------|
A|---------9----------------9-------|
F|--8-9-11---11-8----8-9-11---11-8--|
C|----------------------------------|
G|----------------------------------|
C|----------------------------------|

  Figure B                                                      
d|--------------------------7-------|
A|---------9------------------------|
F|--8-9-11---11-8----8-9-11---11-8--|
C|----------------------------------|
G|----------------------------------|
C|----------------------------------|
        
  Figure C                                                        
d|---------9------------------------|
A|--------------------------9-------|
F|--8-9-11---11-8----8-9-11---11-8--|
C|----------------------------------|
G|----------------------------------|
C|----------------------------------|


 [CHORUS]

  Repeat
d|-------------------------------------------------|
A|-------------------------------------------------|
F|--6-----------4------------2---------------------|
C|--6-----------4------------2------------9--------|
G|--4-----------2------------0------------9--------|
C|---------------------------------6~~---/9--------|


 [VERSE]

  Figure A
d|----------------------------------|
A|---------9----------------9-------|
F|--8-9-11---11-8----8-9-11---11-8--|
C|----------------------------------|
G|----------------------------------|
C|----------------------------------|

  Figure B                                                      
d|--------------------------7-------|
A|---------9------------------------|
F|--8-9-11---11-8----8-9-11---11-8--|
C|----------------------------------|
G|----------------------------------|
C|----------------------------------|
        
  Figure C                                                        
d|---------9------------------------|
A|--------------------------9-------|
F|--8-9-11---11-8----8-9-11---11-8--|
C|----------------------------------|
G|----------------------------------|
C|----------------------------------|


 [CHORUS]

  Repeat
d|-------------------------------------------------|
A|-------------------------------------------------|
F|--6-----------4------------2---------------------|
C|--6-----------4------------2------------9--------|
G|--4-----------2------------0------------9--------|
C|---------------------------------6~~---/9--------|


 [SOLO]

d|------------------------------------------------------------|
A|-12b14r12b14~~~----12b14r12---------------------------------|
F|------------------------------------------------------------|
C|-----------------------------14--13h14p13~~~----13----------|
G|---------------------------------------------------14-9~~~--|
C|------------------------------------------------------------|


d|------------------------------------------------------------------------|
A|----------------------------------------------14-------12~~--12b14VVVV--|
F|----------------------------------11h13~~--13----13----11~~-------------|
C|-------11-11h13p11~~--11h13p11~~--------------------14------------------|
G|-11h14------------------------------------------------------------------|
C|------------------------------------------------------------------------|

  Repeat                                               Ending A                     
d|-16~~-12h16p12-11-----------------------------------|--------------------|
A|------------------12~~---12h14~~--------------------|--------------------|
F|----------------------------------------------------|-----11-------------|
C|---------------------------------14h16p14-13--------|--13-------13-------|
G|---------------------------------------------14~~~--|--------14----14~~--|
C|----------------------------------------------------|--------------------|

  Ending B
d|--------------------------------------------------------------------------19b21~~~--|
A|-----------14b16r14-12-12~~--14b16r14-12-12~~--14b16r14-14b16r14-14b16r14-----------|
F|-----11-----------------------------------------------------------------------------|
C|--13--------------------------------------------------------------------------------|
G|--------14--------------------------------------------------------------------------|
C|------------------------------------------------------------------------------------|


 [CHORUS]

  Repeat
d|-------------------------------------------------|
A|-------------------------------------------------|
F|--6-----------4------------2---------------------|
C|--6-----------4------------2------------9--------|
G|--4-----------2------------0------------9--------|
C|---------------------------------6~~---/9--------|


 [OUTRO]

  Keep repeating
d|--------------------------------------------------|
A|--------------------------------------------------|
F|--------------------------------------------------|
C|-----------------------------------------4--------|
G|--6b7r6-4-6-6b7r6~~~--6b7r6-4-6-6b7r6~~~-4--4--4--|
C|--6b7r6-4-6-6b7r6~~~--6b7r6-4-6-6b7r6~~~-4--4--4--|

  Last time
d|-------------------------------------------------------|
A|-------------------------------------------------------|
F|--------------------------------------------------6~~--|
C|--------------------------------------------------6~~--|
G|--6b7r6-4-6-6b7r6~~~--6b7r6-4-6-6b7r6~~~-4--4--4--4~~--|
C|--6b7r6-4-6-6b7r6~~~--6b7r6-4-6-6b7r6~~~-4--4--4--6~~--|


            
            
Suggest correction
Creating personal tab
Creating personal tab
You can edit any tab online and save it as your Personal.

You can edit, replace or remove any tab part or add personal notes – all changes will be seen only by you.

Personal tabs can be accessed anytime from any device, even offline.
Learn more »
comments
print report bad tab
2 comments total.
+2 reply
copperwreck 1,425 Oct 13, 2016 04:01 AM

Defenitely sounds like there is an 8 string in the outro. I would guess that it plays the notes from the G-string in the tab above, but one octave below.

+2 reply
ViniciusGuerra 108 Oct 13, 2016 05:40 AM

Agreed! Just provided a six string alternative for those unlucky enough to not have a baritone/8 string :)

guest
You may want to rate the tab now too:
select rating
Wanna post a correction for this tab? Suggest correction