Oops, an error
Loading. Please wait.

Uuddlrlrab Select Start bass

version 1
version 1

Whole song

1,628 views 1 this week
2 commentsread comments
1 2 3 4 5
x 4
add to favorites
×
Save as Personal and add changes to this tab that will be seen only by you. Learn more ›
×
You can save this tab as Personal to edit and correct it or add notes. All changes will be seen only by you. Learn more »
launch autoscroll
font size
0
reset
guitar tuner
edit
Autoscroll
slow
fast
+/-
esc
set tempo
stop
Author
U,U,D,D,L,R,L,R,A,B,Select,Start by Deftones, off Saturday Night Wrist.
One of my favorites off the album, and a great bassline by Chi.
Learned this by ear; it's pretty simple really.
Listen to the song for timing and rhythm.

(0:08-0:40) x4

G|-------6-----6-----6-----6-7----------------------------|
D|-4-444---444---444---444-----4-000-4-000-4-000-4-000-0/-|
A|--------------------------------------------------------|
D|--------------------------------------------------------|

(0:41-0:56) x1

G|------------------------------------------------------------------|
D|-4-444-4-444-4-444-4-444/-1414-1212-4-000-4-000-4-000-4-000-77-66-|
A|------------------------------------------------------------------|
D|------------------------------------------------------------------|


G|-----------------------------------------------------|
D|-4-444-4-444-4-444-4-444/-1414-1212-4-000-4-000-4000-|
A|-----------------------------------------------------|
D|-----------------------------------------------------|

(0:57-1:13) x2

G|-------6-----6-----6-----6-7----------------------------|
D|-4-444---444---444---444-----4-000-4-000-4-000-4-000-0/-|
A|--------------------------------------------------------|
D|--------------------------------------------------------|

(1:18-1:51) x3

G|-------------|
D|-------------|
A|-------------|
D|-0----7--3---|
(Sometimes he lets the 7th fret ring out longer, and other times he doesn't.
Listen to the song).

(1:52-2:24) x3

G|------------------------------------------------------------------|
D|-4-444-4-444-4-444-4-444/-1414-1212-4-000-4-000-4-000-4-000-77-66-|
A|------------------------------------------------------------------|
D|------------------------------------------------------------------|


G|-----------------------------------------------------|
D|-4-444-4-444-4-444-4-444/-1414-1212-4-000-4-000-4000-|
A|-----------------------------------------------------|
D|-----------------------------------------------------|

(2:28-3:00) x4

G|-------------|
D|-------------|
A|-------------|
D|-0----7--3---|

(3:02-3:26) x3

G|-------6-----6-----6-----6-7----------------------------|
D|-4-444---444---444---444-----4-000-4-000-4-000-4-000-0/-|
A|--------------------------------------------------------|
D|--------------------------------------------------------|

G|-----------|
D|-----------|
A|-----------|
D|-3-3-3-3-3-|

(The last part is played sporadically until the end.
Listen to the song to pinpoint its exact moments.
I may be wrong about how many times its played).

Credit goes to me and me alone for making this tab.
If you steal this tab, I WILL destroy you.

(Ok, not really, but seriously, don't take credit for my tab).

            
            
Suggest correction
Creating personal tab
Creating personal tab
You can edit any tab online and save it as your Personal.

You can edit, replace or remove any tab part or add personal notes – all changes will be seen only by you.

Personal tabs can be accessed anytime from any device, even offline.
Learn more »
comments
print report bad tab
2 comments total.
0 reply
CarlosHigg 10 Dec 29, 2010 04:53 AM

Awesome tab for an awesome song. Thanks.

+2 reply
chordata 10 Jul 09, 2013 10:52 AM

After the slide to 14, it sounds like it's on the 11th fret, not the 12th.

guest
You may want to rate the tab now too:
select rating
Wanna post a correction for this tab? Suggest correction