Oops, an error
Loading. Please wait.

Youve Seen The Butcher bass

version 1
version 1

Whole song

Interactive

4,133 views 12 this week
no commentswrite comment
1 2 3 4 5
x 3
add to favorites
×
Save as Personal and add changes to this tab that will be seen only by you. Learn more ›
×
You can save this tab as Personal to edit and correct it or add notes. All changes will be seen only by you. Learn more »
launch autoscroll
font size
0
reset
guitar tuner
edit
Autoscroll
slow
fast
+/-
esc
set tempo
stop
Author
Deftones - You've Seen The Butcher

Intro: still
then:
G|---------------------------|
D|---------------------------|
A|---4p0---5p0---------------|
E|-2-----2-----2-22---22-----|   you don't really hear the 0s, they are
B|---------------------------|   kind of muted

when the singing starts:

Verse:
G|--------------------------------------|
D|--------------------------------------|
A|---4p0---------------4p0--------------|
E|-2-----2-22---22---2-----2-22---22----|
B|--------------------------------------|

"I wanna watch the world..."
G|---------------------------|
D|---------------------------|
A|---4p0---5p0---------------|
E|-2-----2-----2-22---22-----|
B|---------------------------|

the last time when the guitars play some Pre-Chorus:
G|------------------------------|
D|------------------------------|
A|---4p0---5p0------------------|
E|-2-----2-----2-22-------------|
B|--------------------77\3------|


Chorus:
G|------------------------------------|
D|-------------2-4---X-4--------------|
A|-0-2---2-4--------------X-0h2--X----|   3x
E|------------------------------------|
B|------------------------------------|

G|--------------------|
D|-------------2-4----|
A|-0-2---2-4----------|
E|--------------------|
B|--------------------|
going right into the verse without any break:

2nd Verse:
G|--------------------------------------|
D|--------------------------------------|
A|---4p0---------------4p0--------------|
E|-2-----2-22---22---2-----2-22---22----|
B|--------------------------------------|

"I wanna watch the world..."
G|---------------------------|
D|---------------------------|
A|---4p0---5p0---------------|
E|-2-----2-----2-22---22-----|
B|---------------------------|

the last time when the guitars play some Pre-Chorus:
G|------------------------------|
D|------------------------------|
A|---4p0---5p0------------------|
E|-2-----2-----2-22-------------|
B|--------------------77\3------|


2nd Chorus:
G|------------------------------------|
D|-------------2-4---X-4--------------|
A|-0-2---2-4--------------X-0h2--X----|   3x
E|------------------------------------|
B|------------------------------------|

G|--------------------|
D|-------------2-4----|
A|-0-2---2-4----------|
E|--------------------|
B|--------------------|

Break:

G|--------------------------------------------------|
D|--------------------------------------------------|
A|---4p0---5p0---------------4p0---5p0--------------|
E|-2-----2-----2-22---22---2-----2-----2-22---22----|
B|--------------------------------------------------|

G|---------------------------------------------------------------|
D|---------------2p0---------------------------------------------|
A|---4p0---5p0------------------------4p0---5p0------------------|
E|-2-----2-----2-----2-22---22------2-----2-----2-22-------------|
B|-----------------------------------------------------77\0------|

G|------------------------------------------------------------------|
D|--------------------------------------------------2p0-------------|
A|-------------4p0---5p0----------------4p0---5p0-------------------|
E|-22---22---2-----2-----2-22---22----2-----2-----2-----2-22---22---|
B|------------------------------------------------------------------|

G|------------------------------|
D|------------------------------|
A|---4p0---5p0------------------|
E|-2-----2-----2-22-------------|
B|--------------------77\3------|


3rd Chorus:
G|------------------------------------|
D|-------------2-4---X-4--------------|
A|-0-2---2-4--------------X-0h2--X----|   3x
E|------------------------------------|
B|------------------------------------|

G|-------------------------------|
D|-------------2-4---------------|
A|-0-2---2-4---------0-0h2-0-0h2-|
E|-------------------------------|
B|-------------------------------|

G|------------------------------------|
D|-------------2-4---X-4--------------|
A|-0-2---2-4--------------X-0h2--X----|   3x
E|------------------------------------|
B|------------------------------------|

G|--------------------|
D|-------------2-4----|
A|-0-2---2-4----------|
E|--------------------|
B|--------------------|

G|---------------------------------|
D|---------------2p0---------------|
A|---4p0---5p0---------------------|
E|-2-----2-----2-----2-22---22-----|
B|---------------------------------|

            
            
Suggest correction
Creating personal tab
Creating personal tab
You can edit any tab online and save it as your Personal.

You can edit, replace or remove any tab part or add personal notes – all changes will be seen only by you.

Personal tabs can be accessed anytime from any device, even offline.
Learn more »
Give kudos to tab author, rate the tab!
1 2 3 4 5
comments
print report bad tab
guest
You may want to rate the tab now too:
select rating
Wanna post a correction for this tab? Suggest correction