Oops, an error
Loading. Please wait.

Holy Deception tab

version 2
version 2

Whole song

  • Rhythm guitar only. Hand placement on middle neck ... Show more
by Deicide
55 views 1 this week
no commentswrite comment
1 2 3 4 5
3 more votes to show rating
add to favorites
×
Save as Personal and add changes to this tab that will be seen only by you. Learn more ›
×
You can save this tab as Personal to edit and correct it or add notes. All changes will be seen only by you. Learn more »
launch autoscroll
font size
0
reset
how to read this tab
guitar tuner
edit
Autoscroll
slow
fast
+/-
esc
set tempo
stop
Author
Difficulty
About this tab version
Rhythm guitar only. Hand placement on middle neck for verse to control string resonance. Was this info helpful? Yes No
Title: Holy Deception
Artist: Deicide
Album: Legion
Tabber: Pascal Bertrand
Tempo = 135
Guitar

[Chorus] x8
E ||---------------------------------------------------|
B ||---------------------------------------------------|
G ||o--------------------------------------------------|
D ||o--------------------------------------------------|
A ||-------------------------5M-5M-5M-4M-4M-3M-3M-3M---|
E ||-1M-0M-0M-0M-0M-0M-0M-0M-3M-3M-3M-2M-2M-1M-1M-1M---|


E |---------------------------------------------------||
B |---------------------------------------------------||
G |--------------------------------------------------o||
D |--------------------------------------------------o||
A |---------------------------------------------------||
E |--1M-0M-0M-0M-0M-0M-0M-0M-6M-5M-3M-0M-6M-5M-3M-0M--||

[Bridge]x4
E ||---------------------------------------------------|
B ||---------------------------------------------------|
G ||o--------------------------------------------------|
D ||o--------------------------------------------------|
A ||---------------------------------------------------|
E ||-0--0--0--0--0--0--0--0--0--0--0--0--8--8--8--8----|


E |----------------------------------------------------|
B |----------------------------------------------------|
G |----------------------------------------------------|
D |----------------------------------------------------|
A |----------------------------------------------------|
E |--7--7--7--7--0--0--0--0--0--0--0--0--7--7--7--7----|


E |----------------------------------------------------|
B |----------------------------------------------------|
G |----------------------------------------------------|
D |----------------------------------------------------|
A |----------------------------------------------------|
E |--6--6--6--6--0--0--0--0--0--0--0--0--8--8--8--8----|


E |----------------------------------------------------|------------------||
B |----------------------------------------------------|------------------||
G |----------------------------------------------------|-----------------o||
D |--------------------------5M----4M------------------|-----4M-3M-------o||
A |--------------------------3M----2M------------------|--4M-2M-1M-3M-----||
E |--7--7--7-----0M----3M----------------------0M------|--2M-------1M-----||

[Verse]x2
E ||---------------------------------------------------|
B ||---------------------------------------------------|
G ||o--------------------------------------------------|
D ||o--------------------------------------------------|
A ||---------------------------------------------------|
E ||-8--8--8--8--7--7--7--7--7--7--6--6--6--6--5--0----|


E |----------------------------------------------------|
B |----------------------------------------------------|
G |----------------------------------------------------|
D |----------------------------------------------------|
A |----------------------------------------------------|
E |--3--3--3--3--2--2--2--2--1--1--1--1--2--2--2--2----|


E |----------------------------------------------------|----------------------|
B |----------------------------------------------------|----------------------|
G |----------------------------------------------------|----------------------|
D |----------------------------------------------------|-----------2--3-------|
A |----------------------------------------------------|-----3M---------------|
E |--8--8--8--8--7--7--7--7--7--7--6--6--6--5--0M------|--0M-1M---------------|

E |----------------------------------------------------|
B |----------------------------------------------------|
G |----------------------------------------------------|
D |----------------------------------------------------|
A |----------------------------------------------------|
E |--8--8--8--8--7--7--7--7--7--7--6--6--6--6--5--0----|


E |----------------------------------------------------|
B |----------------------------------------------------|
G |----------------------------------------------------|
D |----------------------------------------------------|
A |----------------------------------------------------|
E |--3--3--3--3--2--2--2--2--1--1--1--1--2--2--2--2----|


E |----------------------------------------------------|---------------------||
B |----------------------------------------------------|---------------------||
G |----------------------------------------------------|--------------------o||
D |----------------------------------------------------|--------------------o||
A |----------------------------------------------------|--2M-3M----5--4M-----||
E |--8--8--8--8--7--7--7--7--7--7--6--6--6--5--0M------|--0--1M----3M-2M-----||

[Chorus]x4
E ||---------------------------------------------------|
B ||---------------------------------------------------|
G ||o--------------------------------------------------|
D ||o--------------------------------------------------|
A ||-------------------------5M-5M-5M-4M-4M-3M-3M-3M---|
E ||-1M-0M-0M-0M-0M-0M-0M-0M-3M-3M-3M-2M-2M-1M-1M-1M---|

E |---------------------------------------------------||
B |---------------------------------------------------||
G |--------------------------------------------------o||
D |--------------------------------------------------o||
A |---------------------------------------------------||
E |--1M-0M-0M-0M-0M-0M-0M-0M-6M-5M-3M-0M-6M-5M-3M-0M--||

[Solo part 1]x1

E ||-------|-------|
B ||-------|-------|
G ||-------|-------|
D ||--2L---|--2----|
A ||--2L---|--2----|
E ||--0L---|--0----|


E |----------------|-------|-------|-------|-------|----------------|-------|
B |----------------|-------|-------|-------|-------|----------------|-------|
G |----------------|--3L---|--3----|-------|-------|----------------|--4L---|
D |-----------4M---|--3L---|--3----|--2L---|--2----|-----------5M---|--4L---|
A |-----4M-5M-2M---|--1L---|--1----|--2L---|--2----|-----4M-5M-3M---|--2L---|
E |--0M-2M-3M------|-------|-------|--0L---|--0----|--0M-2M-3M------|-------|


E |-------|-------|-------|----------------|-------|-------|-------|-------|
B |-------|-------|-------|----------------|-------|-------|-------|-------|
G |--4----|--3L---|--3----|----------------|-------|-------|--5L---|--5----|
D |--4----|--3L---|--3----|--------5M------|--4L---|--4----|--5L---|--5----|
A |--2----|--1L---|--1----|-----4M-3M-5M---|--4L---|--4----|--3L---|--3----|
E |-------|-------|-------|--0M-2M----3M---|--2L---|--2----|-------|-------|


E |----------------|-------|-------|----------------------||
B |----------------|-------|-------|----------------------||
G |----------------|-------|-------|----------------------||
D |--------5M------|--4L---|--4----|--3M-3M-3M-3M-3M-3M---||
A |-----4M-3M-5M---|--4L---|--4----|--1M-1M-1M-1M-1M-1M---||
E |--0M-2M----3M---|--2L---|--2----|----------------------||

[Solo part 2]x4
E ||---------------------------------------------------|
B ||---------------------------------------------------|
G ||o--------------------------------------------------|
D ||o--------------------------------------------------|
A ||-------------------------5M-5M-5M-4M-4M-3M-3M-3M---|
E ||-1M-0M-0M-0M-0M-0M-0M-0M-3M-3M-3M-2M-2M-1M-1M-1M---|


E |---------------------------------------------------||
B |---------------------------------------------------||
G |--------------------------------------------------o||
D |--------------------------------------------------o||
A |---------------------------------------------------||
E |--1M-0M-0M-0M-0M-0M-0M-0M-6M-5M-3M-0M-6M-5M-3M-0M--||

[Bridge]x4
E ||---------------------------------------------------|
B ||---------------------------------------------------|
G ||o--------------------------------------------------|
D ||o--------------------------------------------------|
A ||---------------------------------------------------|
E ||-0--0--0--0--0--0--0--0--0--0--0--0--8--8--8--8----|


E |----------------------------------------------------|
B |----------------------------------------------------|
G |----------------------------------------------------|
D |----------------------------------------------------|
A |----------------------------------------------------|
E |--7--7--7--7--0--0--0--0--0--0--0--0--7--7--7--7----|


E |----------------------------------------------------|
B |----------------------------------------------------|
G |----------------------------------------------------|
D |----------------------------------------------------|
A |----------------------------------------------------|
E |--6--6--6--6--0--0--0--0--0--0--0--0--8--8--8--8----|


E |----------------------------------------------------|------------------||
B |----------------------------------------------------|------------------||
G |----------------------------------------------------|-----------------o||
D |--------------------------5M----4M------------------|-----4M-3M-------o||
A |--------------------------3M----2M------------------|--4M-2M-1M-3M-----||
E |--7--7--7-----0M----3M----------------------0M------|--2M-------1M-----||

[Verse]x2
E ||---------------------------------------------------|
B ||---------------------------------------------------|
G ||o--------------------------------------------------|
D ||o--------------------------------------------------|
A ||---------------------------------------------------|
E ||-8--8--8--8--7--7--7--7--7--7--6--6--6--6--5--0----|


E |----------------------------------------------------|
B |----------------------------------------------------|
G |----------------------------------------------------|
D |----------------------------------------------------|
A |----------------------------------------------------|
E |--3--3--3--3--2--2--2--2--1--1--1--1--2--2--2--2----|


E |----------------------------------------------------|----------------------|
B |----------------------------------------------------|----------------------|
G |----------------------------------------------------|----------------------|
D |----------------------------------------------------|-----------2--3-------|
A |----------------------------------------------------|-----3M---------------|
E |--8--8--8--8--7--7--7--7--7--7--6--6--6--5--0M------|--0M-1M---------------|

E |----------------------------------------------------|
B |----------------------------------------------------|
G |----------------------------------------------------|
D |----------------------------------------------------|
A |----------------------------------------------------|
E |--8--8--8--8--7--7--7--7--7--7--6--6--6--6--5--0----|


E |----------------------------------------------------|
B |----------------------------------------------------|
G |----------------------------------------------------|
D |----------------------------------------------------|
A |----------------------------------------------------|
E |--3--3--3--3--2--2--2--2--1--1--1--1--2--2--2--2----|


E |----------------------------------------------------|---------------------||
B |----------------------------------------------------|---------------------||
G |----------------------------------------------------|--------------------o||
D |----------------------------------------------------|--------------------o||
A |----------------------------------------------------|--2M-3M----5--4M-----||
E |--8--8--8--8--7--7--7--7--7--7--6--6--6--5--0M------|--0--1M----3M-2M-----||

[Chorus] x8
E ||---------------------------------------------------|
B ||---------------------------------------------------|
G ||o--------------------------------------------------|
D ||o--------------------------------------------------|
A ||-------------------------5M-5M-5M-4M-4M-3M-3M-3M---|
E ||-1M-0M-0M-0M-0M-0M-0M-0M-3M-3M-3M-2M-2M-1M-1M-1M---|


E |---------------------------------------------------||
B |---------------------------------------------------||
G |--------------------------------------------------o||
D |--------------------------------------------------o||
A |---------------------------------------------------||
E |--1M-0M-0M-0M-0M-0M-0M-0M-6M-5M-3M-0M-6M-5M-3M-0M--||

[End]
E ||----------------||
B ||----------------||
G ||----------------||
D ||----------------||
A ||--2.------------||
E ||--0.------------||



************************************

L - tied note
M - palm mute
. - staccato

************************************

            
            
Suggest correction
Creating personal tab
Creating personal tab
You can edit any tab online and save it as your Personal.

You can edit, replace or remove any tab part or add personal notes – all changes will be seen only by you.

Personal tabs can be accessed anytime from any device, even offline.
Learn more »
Give kudos to tab author, rate the tab!
1 2 3 4 5
comments
print report bad tab
guest
You may want to rate the tab now too:
select rating
Wanna post a correction for this tab? Suggest correction