Oops, an error
Loading. Please wait.

Rain Down intro tab

version 1
version 1

Intro

Whole song

Interactive

17,736 views 3 this week
1 commentread comment
1 2 3 4 5
x 5
add to favorites
×
Save as Personal and add changes to this tab that will be seen only by you. Learn more ›
×
You can save this tab as Personal to edit and correct it or add notes. All changes will be seen only by you. Learn more »
launch autoscroll
font size
0
reset
how to read this tab
guitar tuner
edit
Autoscroll
slow
fast
+/-
esc
set tempo
stop
Author
Difficulty
Artist: Delirious?
Song: Rain Down
Submited By: Diego Sanjuan
~ Vibration

e|----------------------------------------------------------------------|
B|----------------------------------------------------------------------|
G|--0-9-11-0-9-11-0-9-11-0-9-11-12-12-12-12-0-9-11-0-9-11-0-9-11-0-9-11-|
D|----------------------------------------------------------------------|
A|----------------------------------------------------------------------|
E|----------------------------------------------------------------------|

e|----------7-7--7--7--7--7--7--7--7-7-7-7-7-7-7-7-0-0-0-0-0-0-0-0-|
B|----------9-9--9--9--9--9--9--9--8-8-8-8-8-8-8-8-0-0-0-0-0-0-0-0-|
G|-12-11-9-10-10-10-10-10-10-10-10-9-9-9-9-9-9-9-9-7-7-7-7-7-7-7-7-|
D|-----------------------------------------------------------------|
A|-----------------------------------------------------------------|
E|-----------------------------------------------------------------|

e|-0-0-0-0-0-0-0-0--------------------------------------|
B|-0-0-0-0-0-0-0-0--------------------------------------|
G|-9-9-9-9-9-9-9-9---12-11-9~---------------------------|
D|------------------------------------------------------|   all x2
A|------------------------------------------------------|
E|------------------------------------------------------|


I hope you enjoy it if you have doughts send them to diego_pumas@hotmail.com

            
            
Suggest correction
Creating personal tab
Creating personal tab
You can edit any tab online and save it as your Personal.

You can edit, replace or remove any tab part or add personal notes – all changes will be seen only by you.

Personal tabs can be accessed anytime from any device, even offline.
Learn more »
comments
print report bad tab
1 comment total.
0 reply
pinesylvanray 745 Dec 22, 2014 07:38 AM

Clearly wrong. Sounds nothing like the song. There is little else to be said. Check out version three. It's much better. Keep trying though.

guest
You may want to rate the tab now too:
select rating
Wanna post a correction for this tab? Suggest correction