Oops, an error
Loading. Please wait.

Shout To The North tab

version 2
version 2

Whole song

100 views 1 this week
no commentswrite comment
1 2 3 4 5
3 more votes to show rating
add to favorites
×
Save as Personal and add changes to this tab that will be seen only by you. Learn more ›
×
You can save this tab as Personal to edit and correct it or add notes. All changes will be seen only by you. Learn more »
launch autoscroll
font size
0
reset
how to read this tab
guitar tuner
edit
Autoscroll
slow
fast
+/-
esc
set tempo
stop
Author
-------------------------------------------------------------------------------
                             shout to the north - delirious
-------------------------------------------------------------------------------
Tabbed by:
E-mail:
key of Eb
Tuning:E-A-D-B-G-e

e|---------------------------------------------------------------------------|
B|---------------------------------------------------------------------------|
G|----------0---------------------------0--------------------------------0---|
D|--1--3----1--------3---0----1---1-3---1--------3---0----1----1---3-----1---|
A|----------1----1---5--------1---------1----1---5--------1--------------1---|
E|---------------------------------------------------------------------------|
   men of faith rise up and sing of a great and glorious King you are strong
e|---------------------------------------------------------------------------|
B|---------------------------------------------------------------------------|
G|-----------------------------0---------0-----------------------------------|
D|-------3---1-----1--1----3---1-----3------3-1------------------------------|
A|---1---5---------1-----------1--1--5------3-1------------------------------|
E|---------------------------------------------------------------------------|
   when you feel weak in your brokenness complete  
e|---------------------------------------------------------------------------|
B|---------------------------------------------------------------------------|
G|-------3---3--------1----1---0----------3--3-------1----1---0--------3-3---|
D|-------5---5---1----1-------------3-----5--5---1---1------------3----5-5---|
A|--------------------3-------------5----------------3------------5----------|
E|---------------------------------------------------------------------------|
chorus shout to the north and the south sing to the east and the west Jesus
e|---------------------------------------------------------------------------|
B|---------------------------------------------------------------------------|
G|------1--1--0-------1---0--------------------------------------------------|
D|--1---1---------3---1-------3--1---1----1----------------------------------|
A|------3---------5---3-------------------1----------------------------------|
E|---------------------------------------------------------------------------|
   the Savior to all Lord of heaven and earth 
e|---------------------------------------------------------------------------|
B|---------------------------------------------------------------------------|
G|-------0----0------0------0----------------------------0----0---0--0---0---|
D|-------1------------------1----1-----1-----3-----------1---------------3---|
A|-------3------------------3----3-----------------3-----3-------------------|
E|-------------------------------------------------4-------------------------|
bridge we've been through fire we've been through rain we've been refined by
e|---------------------------------------------------------------------------|
B|---------------------------------------------------------------------------|
G|-------------------------0----0--0---0-------------------------------------|
D|--1----1----1--3---------1-----------1--3--1----1----3--------1-----1------|
A|-------3------------3----3-----------3-----3-------------3----3------------|
E|---------------------------------------------------------4-----------------|
   the power of His name we've fallen deeper in love with You You've burned
e|---------------------------------------------------------------------------|
B|---------------------------------------------------------------------------|
G|---------------3---3-------------------------------------------------------|
D|--1----1---1-------3-------------------------------------------------------|
A|---------------------------------------------------------------------------|
E|---------------------------------------------------------------------------|
   the truth on our lips (repeat chorus)
e|---------------------------------------------------------------------------|
B|---------------------------------------------------------------------------|
G|---------------------------------------------------------------------------|
D|---------------------------------------------------------------------------|
A|---------------------------------------------------------------------------|
E|---------------------------------------------------------------------------|


************************************

| /   slide up
| \   slide down
| h   hammer-on
| p   pull-off
| ~   vibrato
| +   harmonic
| x   Mute note
| b   Bend
| pb  Pre-bend
| br  Bend release
| pbr Pre-bend release
| brb Bend release bend

************************************

            
            
Suggest correction
Creating personal tab
Creating personal tab
You can edit any tab online and save it as your Personal.

You can edit, replace or remove any tab part or add personal notes – all changes will be seen only by you.

Personal tabs can be accessed anytime from any device, even offline.
Learn more »
Give kudos to tab author, rate the tab!
1 2 3 4 5
comments
print report bad tab
guest
You may want to rate the tab now too:
select rating
Wanna post a correction for this tab? Suggest correction