Oops, an error
Loading. Please wait.

Solid Rock tab

version 2
version 2

Whole song

Interactive

4,129 views 1 this week
1 commentread comment
1 2 3 4 5
x 4
add to favorites
×
Save as Personal and add changes to this tab that will be seen only by you. Learn more ›
×
You can save this tab as Personal to edit and correct it or add notes. All changes will be seen only by you. Learn more »
launch autoscroll
font size
0
reset
how to read this tab
guitar tuner
edit
Autoscroll
slow
fast
+/-
esc
set tempo
stop
Author
Difficulty
Tabbers playing skills
intermediate
intermediate
Tuning: Standard (EADGBe)

| ~  vibrato
| h  hammer-on
| p  pull-off
| /  slide up
| \  slide down
| ^  bend
| .  palm-mute

All guitars tuned EADGBe
 {Gtr 1 - acoustic
 {Gtr 2 - distorted electric

This song has a lot tricks to it to make it sound just right. As a rule, try to keep 
your pull-offs nice, clean, and buzz-free. ;)

[Intro] Played once and then looped.
  {Gtr 1
e|------------------------------|
B|------------------------------|
G|------------------------------|
D|------------------------------|
A|-----7---5--7~----7-----------|
E|--0----0-------0----7-10p0-3--|

[Verse]
  {Gtr 2
e|----------------------------------------------------|
B|----------------------------------------------------|
G|--12-12-12-12-12-12-12-12--11-11-11-11-11-11-11-11--|
D|--14-14-14-14-14-14-14-14--12-12-12-12-12-12-12-12--|
A|----------------------------------------------------|
E|----------------------------------------------------|

  {Gtr 2
e|----------------------------------------------------|
B|----------------------------------------------------|
G|--6-6-6-6-6-6-6-6-6-6-6-6--5-5-5-5-5-5-5-5-5-5-5-5--|
D|--7-7-7-7-7-7-7-7-7-7-7-7--7-7-7-7-7-7-7-7-7-7-7-7--|
A|----------------------------------------------------|
E|----------------------------------------------------|

[Pre-Chorus]
  {Gtr 2
e|----------------------------------------------------|
B|----------------------------------------------------|
G|--12-12-12-12-12-12-12-12--14-14-14-14-14-14-14-14--|
D|--14-14-14-14-14-14-14-14--16-16-16-16-16-16-16-16--|
A|----------------------------------------------------|
E|----------------------------------------------------|

  {Gtr 2
e|----------------------------------------------------|
B|----------------------------------------------------|
G|--16-16-16-16-16-16-16-16--18-18-18-18-18-18-18-18--|
D|--17-17-17-17-17-17-17-17--19-19-19-19-19-19-19-19--|
A|----------------------------------------------------|
E|----------------------------------------------------|


[Chorus] Sounds like the guitarist strums it once and then lets it ring with a tad bit 
of delay, but regular strumming sounds fine too.

  {Gtr 2
  On Christ the solid rock we will stand,
e|----------------------------------------|
B|---9~----------------------------10~----|
G|---9~----------------------------9~-----|
D|---9~----------------------------7~-----|
A|---7~----------------------------7~-----|
E|----------------------------------------|

  {Gtr 2
  All other ground is sinking sand...
e|-----------------------------------|
B|--7~-------------------------------|
G|--7~----------------9~-------------|
D|--7~----------------7~-------------|
A|--5~----------------7~-------------|
E|-----------------------------------|


[Bridge]  Lots of improvisation. Here's the tab. It's right, but you have to feel it out!

  {Gtr 1
e|---------------------------|
B|---------------------------|
G|--9\-----------------------|
D|--9\-----7^----------------|
A|---------------------------|
E|------------------0h3-3-0--|
    .........

  {Gtr 1
e|--12------------------------------------------------------------|
B|-----10p0-10/12--8~----10\8p0-10/12--8p5-8--5~----0-8p5-5p3-5~--|
G|----------------------------------------------------------------|
D|----------------------------------------------------------------|
A|----------------------------------------------------------------|
E|----------------------------------------------------------------|
    ..................lightly palm-muted........................

  {Gtr 1
e|--------------------------------------------------------------------------|
B|12~-15-12---15-12-15-12-15-12/14--10--5-----------------------------------|
G|-----------------------------------------7-6---5/6------------------------|
D|---------------------------------------------7------7--5--4--2--0-0---0h2~|
A|--------------------------------------------------------------------2-----|
E|--------------------------------------------------------------------------|
  .........................  lightly palm muted  ...........................

  {Gtr 1
e|---------------------|
B|--17-17--15/17~-17~--|
G|---------------------|
D|---------------------|
A|---------------------|
E|---------------------|

  {Gtr 1 - It's not impossible. Once you get it down it's pretty fun.
e|--------------------------------------------------------------------------|
B|--------------------------------------------------------------------------|
G|----------------------7---------7--7-7-------------7-7----7---------------|
D|----------------------------7-9--------7h9p7---7-9------9----7-9p7-7-5-2~-|
A|--5-7-5h7-5---5h7-7h9---7-9-----------------------------------------------|
E|------------7-------------------------------------------------------------|
    .......................  lightly palm muted  .........................

Go back to the chorus and wrap up from there.

Done! God bless. :)

            
            
Suggest correction
Creating personal tab
Creating personal tab
You can edit any tab online and save it as your Personal.

You can edit, replace or remove any tab part or add personal notes – all changes will be seen only by you.

Personal tabs can be accessed anytime from any device, even offline.
Learn more »
comments
print report bad tab
1 comment total.
0 reply
pinesylvanray 745 Dec 21, 2014 08:28 PM

e|----------------------|
B|----------------------|
G|----------------------|
D|----------------------|
A|-----7-5-7~---7-5p0---|
E|--0---------0-------3-|


Try playing the loop this way. It sounds better IMO.
Also, try playing the second part of the verse like this xx97xx (9 and
7 on the D and G strings respectively), rather than xx1211xx (12 and 11
on the G and D strings respectively).

Try playing the last chord in the chorus as an A, with this fingering
xx543x (5, 4, and 3, on the D, G, and B strings respectively.

Good job on the solo bridge.

guest
You may want to rate the tab now too:
select rating
Wanna post a correction for this tab? Suggest correction