Oops, an error
Loading. Please wait.

Give Your Heart A Break bass

version 1
version 1

Whole song

Interactive

3,635 views 1 this week
no commentswrite comment
1 2 3 4 5
2 more votes to show rating
add to favorites
×
Save as Personal and add changes to this tab that will be seen only by you. Learn more ›
×
You can save this tab as Personal to edit and correct it or add notes. All changes will be seen only by you. Learn more »
launch autoscroll
font size
0
reset
guitar tuner
edit
Autoscroll
slow
fast
+/-
esc
set tempo
stop
Author
Difficulty
First Tab!
Demi Lovato-Give Your Heart A Break(2012)
Listen to the song for the timing and groove.
Have Fun!
| /  slide up
| \  slide down
| h  hammer-on
| p  pull-off
| ~  Let Ring
| +  harmonic
| x  Mute note


Into/Verse:-NO VOCALS->  The day I, first met you...
G|---------------------------------------------------------------------------|
D|---------------------------------------------------------------------------|
A|-2-2-2-2---------4-4-4-4--------------------(X3)---------------------------|
D|---------2-2-2-2---------4-4-4-4-------------------------------------------|

Now here we are, so close...
G|---------------------------------------------------------------------------|
D|---------------------------------------------------------------------------|
A|-2-22~------4-44~------2-22~-------4-44~-----------------------------------|
D|------2-22~------4-44~-------2-22~-------4~\1------------------------------|


Chorus:Don't wanna break your heart...
G|---------------------------------------------------------------------------|
D|---------------------------------------------------------------------------|
A|-2(x8)-------4(x8)--------------------------------(X3)---------------------|
D|-------2(x8)------4(x8)----------------------------------------------------|


Verse 2: On Sunday, you went home...
G|---------------------------------------------------------------------------|
D|---------------------------------------------------------------------------|
A|-2-2-2-2----------4-4-4-4---------2-2-2-2---------4-4-4-4---------2-2-2-2--|
D|----------2-2-2-2---------4-4-4-4---------2-2-2-2---------4-4-4-4----------|

G|-----------------------------------------------------------------------------|
D|-----------------------------------------------------------------------------|
A|---------4-4-4-4---------2-2-2-2---------4-4-4-4-----------------------------|
D|-2-2-2-2---------4-4-4-4---------2-2-2-2---------4~x-------------------------|

Chorus:Don't wanna break your heart, Wanna give your heart a break...
G|---------------------------------------------------------------------------|
D|---------------------------------------------------------------------------|
A|-2(x8)-------4(x8)----------------------------------(X4)-------------------|
D|-------2(x8)------4(x8)----------------------------------------------------|

Verse 3:When your lips are on my lips, and out hearts beat as one...
G|-----------------------------------------------------------------------------|
D|-----------------------------------------------------------------------------|
A|-2~~----4~~----2~~----4~~----2-22~-------4-44~-------------------------------|
D|----2~~----4~~----2~~----4~~-------2-22~-------4~x---------------------------|

Chorus:Don't wanna break your heart...
G|---------------------------------------------------------------------------|
D|---------------------------------------------------------------------------|
A|-2(x8)-------4(x8)--------------------------------(X6)---------------------|
D|-------2(x8)------4(x8)----------------------------------------------------|

Outro:The day I, first met you...
G|---------------------------------------------------------------------------|
D|---------------------------------------------------------------------------|
A|-2~~-----4~~---------------------------------------------------------------|
D|-----2~~-----4~~-----------------------------------------------------------|

Any suggestions or Feedback, email me: ydnamahp31@gmail.com

            
            
Suggest correction
Creating personal tab
Creating personal tab
You can edit any tab online and save it as your Personal.

You can edit, replace or remove any tab part or add personal notes – all changes will be seen only by you.

Personal tabs can be accessed anytime from any device, even offline.
Learn more »
Give kudos to tab author, rate the tab!
1 2 3 4 5
comments
print report bad tab
guest
You may want to rate the tab now too:
select rating
Wanna post a correction for this tab? Suggest correction