Oops, an error
Loading. Please wait.
We have Chord Pro version of La La Land.
It's the closest thing you can get to the original song and it has interactive parts. Check out the tab »
×
20,325 views 9 this week
5 commentsread comments
1 2 3 4 5
x 8
add to favorites
×
Save as Personal and add changes to this tab that will be seen only by you. Learn more ›
×
You can save this tab as Personal to edit and correct it or add notes. All changes will be seen only by you. Learn more »
launch autoscroll
font size
0
reset
how to read this tab
guitar tuner
edit
Autoscroll
slow
fast
+/-
esc
set tempo
stop
Demi Lovato - La La Land


Tuning: Standard (eBGDAE)

**Listen to the original track for proper timing.

######################################################################################
Rhythm Guitar
######################################################################################

Intro
e|----------------|
B|----------------|
G|------11--------|
D|------11x8------|
A|------9---------|
E|----------------|

Verse
e|----------------|----------------|----------------|----------------|
B|----------------|----------------|----------------|----------------|
G|------11--------|-----11---------|---7-----9------|-----11---------| x2
D|------11-x8-----|-----11-x8------|---7-x4--9-x4---|-----11-x8------|
A|------9---------|-----9----------|---5-----7------|-----9----------|
E|----------------|----------------|----------------|----------------|

Chorus
e|----------------|----------------|----------------|    |----------------|
B|----------------|----------------|----------------|    |----------------|
G|----------------|----------------|-7-----10-------| x2 |------11--------| x2
D|---7-----6------|---4-----2------|-7-x4--10-x4(x1)|    |------11x8------|
A|---7-x4--6-x4---|---4-x4--2-x4---|-5-----8--------|    |------9---------|
E|---5-----4------|---2-----0------|----------------|    |----------------|

Verse
e|----------------|----------------|----------------|----------------|
B|----------------|----------------|----------------|----------------|
G|------11--------|-----11---------|---7-----9------|-----11---------| x2
D|------11-x8-----|-----11-x8(x5)--|---7-x4--9-x4---|-----11-x8------|
A|------9---------|-----9----------|---5-----7------|-----9----------|
E|----------------|----------------|----------------|----------------|

Chorus
e|----------------|----------------|----------------|
B|----------------|----------------|----------------|
G|----------------|----------------|---7-----10-----| x2
D|---7-----6------|---4-----2------|---7-x4--10-x4--|
A|---7-x4--6-x4---|---4-x4--2-x4---|---5-----8------|
E|---5-----4------|---2-----0------|----------------|

Bridge (If no pianist/keyboarder in the band, play this) [with clean tones]
e|---0----0-------|---2----0-------|---2----1-------|----------------|
B|---2----0-------|---2----0-------|---3----3-------|----------------|
G|---2----1-------|---2----1-------|---2----2-------|-------14-------|(13th fret slide
D|---2----2-------|---4----2-------|---0----0-------|-13/14----------|to the 14th fret)
A|---0----2-------|---4----2-------|---0----0-------|----------------|(12th fret slide
E|---0----0-------|---2----0-------|----------------|----------12/0--|to the 0th fret)

Guitar Solo
e|----------------|----------------|----------------|
B|----------------|----------------|----------------|
G|----------------|----------------|---7-----10-----| x2
D|---7-----6------|---4-----2------|---7-x4--10-x4--|
A|---7-x4--6-x4---|---4-x4--2-x4---|---5-----8------|
E|---5-----4------|---2-----0------|----------------|

Chorus
e|----------------|----------------|----------------|
B|----------------|----------------|----------------|
G|----------------|----------------|---7-----10-----| x2
D|---7-----6------|---4-----2------|---7-x4--10-x4--|
A|---7-x4--6-x4---|---4-x4--2-x4---|---5-----8------|
E|---5-----4------|---2-----0------|----------------|

e|----------------|----------------|----------------|----------------|
B|----------------|----------------|----------------|----------------|
G|---11-----9-----|-----7----------|---11-----9-----|---7------10----|
D|---11-x4--9-x4--|-----7-x8-------|---11-----9-----|---7------10----|
A|---9------7-----|-----5----------|---9------7-----|---5------8-----|
E|----------------|----------------|----------------|----------------|

Outro
e|----------------|----------------|----------------|
B|----------------|----------------|----------------|
G|----------------|----------------|---7-----10-----| x4
D|---7-----6------|---4-----2------|---7-x4--10-x4--|
A|---7-x4--6-x4---|---4-x4--2-x4---|---5-----8------|
E|---5-----4------|---2-----0------|----------------|

e|----------------|----------------|----------------|
B|----------------|----------------|----------------|
G|----------------|----------------|---7-----10-----|
D|---7-----6------|---4-----2------|---7-----10-----|
A|---7-----6------|---4-----2-x4---|---5-----8------|
E|---5-----4------|---2-----0------|----------------|

(Choke on last beat/Mute after last strum and let the keyboarder do the ending bell effect.)


######################################################################################
Lead Guitar
######################################################################################

Intro [Not played]

Verse
e|----------------|----------------|----------------|-------2------------------.)(Slow strum,
B|----------------|----------------|----------------|-------2------------------.) each note
G|----------------|----------------|----------------|-------2------------------.) to be heard
D|----------------|----------------|----------------|-------4--------| clearly-.)
A|----------------|----------------|----------------|--------------------------.)Tip: Strum
E|----------------|----------------|----------------|--------------------------.) with thumb]

Verse [Not played]

Chorus
e|----12----------12-------|----9---------9------|
B|-------14----------12----|------10--------10---|
G|-14-------14-13-------13-|-11------11-9------9-| x2 (Repeat after
D|-------------------------|---------------------|     the distorted
A|-------------------------|---------------------|     strum by the
E|-------------------------|---------------------|     rhythm guitar)

Short break not played

Verse
e|-----------------|-----------------|
B|-----------------|-----------------|
G|-------2---------|-------2---------|
D|-4-------4-------|-4-------4-------|
A|---3-4-----3-4---|---3-4-----3-4---|
E|---------------2-|---------------2-|

e|-----------------|-----------------|
B|-----------------|-----------------|
G|-----------------|-------2---------|
D|-0-------2-------|-4-------4-------|
A|---0---0---2-----|---3-4-----3-4---|
E|-----2-------4-0-|---------------2-|

e|-----------------|-----------------|
B|-----------------|-----------------|
G|-------2---------|-------2---------|
D|-4-------4-------|-4---------------|
A|---3-4-----3-4---|---3-4-----------|
E|---------------2-|---------2-------|

e|-----------------|-----------------|
B|-----------------|-----------------|
G|-----------------|-------2---------|
D|-0-------2-------|-4-------4-------|
A|---0---0---2-----|---3-4-----3-4---|
E|-----2-------4-0-|---------------2-|

Chorus
e|----12----------12-------|----9---------9------|
B|-------14----------12----|------10--------10---|
G|-14-------14-13-------13-|-11------11-9------9-| x2 (Repeat after
D|-------------------------|---------------------|     the distorted
A|-------------------------|---------------------|     strum by the
E|-------------------------|---------------------|     rhythm guitar)

Bridge [Not played]

Solo
e|-------------------------------------------------------------|
B|-19-17h19p17-------------------------------------------------|
G|-------------19-18h19p18-16-14h16p14-------------------------|
D|-------------------------------------16-14h16p14-------------|
A|-------------------------------------------------16-14h16p14-|
E|-------------------------------------------------------------|

e|-----------------------------| [50.) accurate]
B|----------------------------------.) [From the beginning of the solo
G|----------------------------------.)  until here, it’s very fast, play
D|----------------------------------.)  it neatly with the distortion on
A|----------------------------------.)  and not much people can hear the
E|-17-14h17p14-14-12h14p12-12-------.)  difference compared to the original’s.]

[From here onwards, pretty accurate I guess.]
e|------------------------------------------------------------------|
B|-------------------19-17-15-14h15p14---------------17--17---------|
G|--------14^(16)r14-------------------16-14----14-16^-16^-16^16-14-|
D|-----14------------------------------------16---------------------|
A|-12~~-------------------------------------------------------------|
E|------------------------------------------------------------------|

e|------------------------------------------------------------|
B|----------------------------------------------17^(19)r17-17-|
G|-8^---10^-12^---13^---17^----14^(16)r14-14------------------|
D|------------------------------------------------------------|
A|-7----9---11----12----16--16---------------16---------------|
E|------------------------------------------------------------|

e|-17-15-14----------15-13----------------------|
B|----------15-------------15-------------------|
G|-------------14~------------14h16-14h16-14~/2-|
D|----------------------------------------------|
A|----------------------------------------------|
E|----------------------------------------------|

Chorus
e|----12----------12-------|----9---------9------|
B|-------14----------12----|------10--------10---|
G|-14-------14-13-------13-|-11------11-9------9-| x2 (Repeat after
D|-------------------------|---------------------|     the distorted
A|-------------------------|---------------------|     strums by the
E|-------------------------|---------------------|     rhythm guitar)

Break

Outro
e|----12----------12-------|----9---------9------|---5-------5-----|
B|-------14----------12----|------10--------10---|-----7-------7---|
G|-14-------14-13-------13-|-11------11-9------9-|-7-----7-7-----7-| x3
D|-------------------------|---------------------|-----------------|
A|-------------------------|---------------------|--(Can-be-not----|
E|-------------------------|---------------------|------played)----|

[To be played by tapping if there is no pianist/keyboarder in the band]
e|-21-17-12-----19-16-12----|-17-12-9-----|-17-12-9----19-12-9-17-12-9----19-12-9-|
B|-----------x4----------x4-|---------x8--|---------x3-----------------x2---------|
G|--------------------------|-------------|---------------------------------------| x2
D|--------------------------|-------------|---------------------------------------|
A|--------------------------|-------------|---------------------------------------|
E|--------------------------|-------------|---------------------------------------|

(Choke on last beat/Mute after last strum and let the keyboarder do the ending bell effect.)

Symbols:
^: Bend
/: Slide
~: Vibrato
14h16: Hammer on
16p14: Pull off
17^(19)r17: Bend to note in parentheses and release back to first note


Tabbed by OXZ
21st & 22nd of March 2009
http://ongxizhe.googlepages.com/contactme


Note: This is my first ever written guitar tabs, accurate or not is for you to rate. 
me what you think. =)

            
            
Suggest correction
Creating personal tab
Creating personal tab
You can edit any tab online and save it as your Personal.

You can edit, replace or remove any tab part or add personal notes – all changes will be seen only by you.

Personal tabs can be accessed anytime from any device, even offline.
Learn more »
comments
print report bad tab
5 comments total. Showing first comments.
0 reply
ongxizhe 10 Apr 09, 2009 05:45 AM

Forgot to log in while posting this. Is it possible to change the "Tabbed by" to me?

+1 reply
Dark Valer 40 May 09, 2009 04:27 PM

wow

+1 reply
Dark Valer 40 May 09, 2009 04:28 PM

finally a tab with the solo in it. Ive already tried this tab and it sounds pretty accurate even the solo. So great job man

guest
Wanna post a correction for this tab? Suggest correction