Oops, an error
Loading. Please wait.

Open tab

version 1
version 1

Whole song

3,039 views 3 this week
no commentswrite comment
1 2 3 4 5
2 more votes to show rating
add to favorites
×
Save as Personal and add changes to this tab that will be seen only by you. Learn more ›
×
You can save this tab as Personal to edit and correct it or add notes. All changes will be seen only by you. Learn more »
launch autoscroll
font size
0
reset
how to read this tab
guitar tuner
edit
Autoscroll
slow
fast
+/-
esc
set tempo
stop
Author
Difficulty
Yeah so I tabbed this by ear and so far I think it's correct.
You may have to figure out some strum patterns in the song! Enjoy!





Intro

e|----------------------------------|
B|----------------------------------|
G|----------7/9-9----3/4-4--3/4-4---|   2x
D|-4/5-5----7/9-9----3/4-4--3/4-4---|
A|-4/5-5----5/7-7----1/2-2--1/2-2---|
E|-2/3-3----------------------------|


Verse

e|-----------------------|
B|-----------------------|
G|------------4-44-4-4---|        3x
D|-5-5--2--2--4-44-4-4---|   
A|-5-5--2--2--2-22-2-2---|
E|-3-3--0--0-------------|


e|------------------------------|
B|------------------------------|
G|------------------------------|
D|-5-5--7--7--9-99-9-9--99-9-9--|
A|-5-5--7--7--9-99-9-9--99-9-9--|
E|-3-3--5--5--7-77-7-7--77-7-7--|


e|-------------------------------------|
B|-------------------------------------|
G|-------------------------------------|
D|--55-5-5--77-7-7--99-9-9--99-9-9-----|
A|--55-5-5--77-7-7--99-9-9--99-9-9-----|
E|--33-3-3--55-5-5--77-7-7--77-7-7-----|



e|-----------------------------|
B|-----------------------------|
G|-----------------------------|
D|--55-5-5--77-7-7---77-7-7----|
A|--55-5-5--77-7-7---77-7-7----|
E|--33-3-3--55-5-5---55-5-5----|



Chorus

e|-------------------------------------------|
B|-------------------------------------------|
G|-------------------------------------------|  2x
D|--55555555--22222222--77777777--44444444---|
A|--55555555--22222222--77777777--44444444---|
E|--33333333--00000000--55555555--22222222---|


e|-------------------------------------------|
B|-------------------------------------------|
G|-------------------------------------------|  
D|--55555555--22222222--99999999-99999999----|
A|--55555555--22222222--99999999-99999999----|
E|--33333333--00000000--77777777-77777777----|


Verse

e|-----------------------|
B|-----------------------|
G|------------4-44-4-4---|        3x
D|-5-5--2--2--4-44-4-4---|   
A|-5-5--2--2--2-22-2-2---|
E|-3-3--0--0-------------|


e|------------------------------|
B|------------------------------|
G|------------------------------|
D|-5-5--7--7--9-99-9-9--99-9-9--|
A|-5-5--7--7--9-99-9-9--99-9-9--|
E|-3-3--5--5--7-77-7-7--77-7-7--|


Chorus

e|-------------------------------------------|
B|-------------------------------------------|
G|-------------------------------------------|  2x
D|--55555555--22222222--77777777--44444444---|
A|--55555555--22222222--77777777--44444444---|
E|--33333333--00000000--55555555--22222222---|


e|-------------------------------------------|
B|-------------------------------------------|
G|-------------------------------------------|  
D|--55555555--22222222--99999999-99999999----|
A|--55555555--22222222--99999999-99999999----|
E|--33333333--00000000--77777777-77777777----|


Bridge

e|-------------------------------------------|
B|-------------------------------------------|
G|-------------------------------------------|  2x
D|--55555555--77777777--99999999--77777777---|
A|--55555555--77777777--99999999--77777777---|
E|--33333333--55555555--77777777--55555555---|


e|---------------------------------------------------------------------------|
B|---------------------------------------------------------------------------|
G|---------------------------------------------------------------------------|  
D|--55555555--77777777--1212121212121212--10101010101010101010101010101010---|
A|--55555555--77777777--1212121212121212--10101010101010101010101010101010---|
E|--33333333--55555555--1010101010101010--8-8-8-8-8-8-8-8-8-8-8-8-8-8-8-8----|


e|-----------------------------------------|
B|-----------------------------------------|
G|-----------------------------------------|  
D|--55555555--77777777--9999999999999999---|
A|--55555555--77777777--9999999999999999---|
E|--33333333--55555555--7777777777777777---|



Chorus

e|-------------------------------------------|
B|-------------------------------------------|
G|-------------------------------------------|  2x
D|--55555555--22222222--77777777--44444444---|
A|--55555555--22222222--77777777--44444444---|
E|--33333333--00000000--55555555--22222222---|


e|-------------------------------------------|
B|-------------------------------------------|
G|-------------------------------------------|  
D|--55555555--22222222--99999999-99999999----|
A|--55555555--22222222--99999999-99999999----|
E|--33333333--00000000--77777777-77777777----|



Outro

e|----------------------------------------|
B|----------------------------------------|
G|-----------7/9-9-9---3/4-4-4---3/4-4-4--|   2x
D|-4/5-5-5---7/9-9-9---3/4-4-4---3/4-4-4--|
A|-4/5-5-5---5/7-7-7---1/2-2-2---1/2-2-2--|
E|-2/3-3-3--------------------------------|




Here are the Lyrics:

 Spitting fire back and forth now
Times have changed in just a few months
Neighbors complaining from the fights and
Why can't things be the same

And maybe I'm just a little bit cautious
Of what I'm gonna say
When I tell you I can't live this way.
But I don't know what to expect from someone who's so insane

Why can't I get through the night
Without another fight
I'm tired of the hurting
Is it really worth it?
Am I all alone again?
Cause I am kinda feeling like I'm screaming
With my mouth shut
When it's really open.

The only noises in my head
Are consumed of your voice
From all the pain and hatred
How long can you kick somebody down
Before a foot breaks?

And why can't I get through the night
Without another fight
I'm tired of the hurting
Is it really worth it?
Am I all alone again cause
I am kinda feeling like I'm screaming
With my mouth shut when it's really open.

And I knew that you would fabricate
This situation just for
The sake of your need for attention
And I'm sick of always being the one
To always break down, always melt down
In the end.
And maybe this time
It's a sign that independance and I
Are finally catching on
I don't need you to rely on.

And why can't I get through the night
Without another fight I'm tired of the hurting
Is it really worth it?
Am I all alone again cause
I am kinda feeling like I'm screaming
With my mouth shut
When it's really open.
Spitting fire back and forth now
Times have changed in just a few months.


            
            
Suggest correction
Creating personal tab
Creating personal tab
You can edit any tab online and save it as your Personal.

You can edit, replace or remove any tab part or add personal notes – all changes will be seen only by you.

Personal tabs can be accessed anytime from any device, even offline.
Learn more »
Give kudos to tab author, rate the tab!
1 2 3 4 5
comments
print report bad tab
guest
You may want to rate the tab now too:
select rating
Wanna post a correction for this tab? Suggest correction