Oops, an error
Loading. Please wait.

So Far So Great intro tab

version 2
version 2

Intro

Whole song

2,178 views 1 this week
1 commentread comment
1 2 3 4 5
2 more votes to show rating
add to favorites
×
Save as Personal and add changes to this tab that will be seen only by you. Learn more ›
×
You can save this tab as Personal to edit and correct it or add notes. All changes will be seen only by you. Learn more »
launch autoscroll
font size
0
reset
how to read this tab
guitar tuner
edit
Autoscroll
slow
fast
+/-
esc
set tempo
stop
Difficulty
hi, im lucero, i think, that, this tab is okay.
hola soy lucero, creo que esta tab esta bien

this song (so far so great) is fun, jeje.

standar tuning  please visit my youtube: DemiLovatoCovers
level: novice
e------------------------------------|
B------------------------------------|
G------------------0-----------------|x2
D--------0--2--4------4--2--4--0-----|
A---2--4-----------------------------|
E------------------------------------|

off to the races, I'm going places,
might be a long shot, not gonna waste this,

e-------------------------------------------|
B-------------------------------------------|
G---------------------------0--------0--0---|x2
D--------0--2--4------2--4-----2--4--------4|
A---2--4------------------------------------|
E-------------------------------------------|
this is the big break.. and it's calling my name   yeah!!!!!

so far so great..........

PLEASE VISIT youtube:    youtube.com/DemiLovatoCovers  (this is my ccount)

            
            
Suggest correction
Creating personal tab
Creating personal tab
You can edit any tab online and save it as your Personal.

You can edit, replace or remove any tab part or add personal notes – all changes will be seen only by you.

Personal tabs can be accessed anytime from any device, even offline.
Learn more »
Give kudos to tab author, rate the tab!
1 2 3 4 5
comments
print report bad tab
1 comment total.
0 reply
Sophzz_X 21 Aug 16, 2009 12:34 PM

Rubbissh .... =|

guest
Wanna post a correction for this tab? Suggest correction