Oops, an error
Loading. Please wait.

This Is Me tab

version 2
version 2

Whole song

Interactive

51,568 views 12 this week
3 commentsread comments
1 2 3 4 5
x 6
add to favorites
×
Save as Personal and add changes to this tab that will be seen only by you. Learn more ›
×
You can save this tab as Personal to edit and correct it or add notes. All changes will be seen only by you. Learn more »
launch autoscroll
font size
0
reset
how to read this tab
guitar tuner
edit
Autoscroll
slow
fast
+/-
esc
set tempo
stop
-------------------------------------------------------------------------------
                     This is Me - Demi Lovato feat. Joe Jonas
-------------------------------------------------------------------------------
Tabbed by: Jedimasterelf
Email: rawr722@yahoo.com
Comments: This is an incredibly easy song to learn. Most likely because it's a Disney
Anyway, this was extremely easy to figure out by ear, so just listen to the song to figure
the strumming patterns and add in whatever else you hear. The solo should be easy to 
out yourself. If not, just improv. ;)

E-mail me if you have any questions. Thanks!

Tuning:eBGDAE capo on 1st

Intro & Verse:

e|---------3-----------------1-----------------------------------------------|
B|------1----1---------1--------0---------1-3--1-------1-----3--1------------|
G|--2---------------------------------0--------------------------------------|
D|-------------------3-----3-------------------------0-----0-----------------|
A|---------------------------------------------------------------------------|
E|---------------------------------------------------------------------------|x5
   Am7               F                C              G

Pre-Chorus:

e|---------------------------------------------------------------------------|
B|---------------------------------------------------------------------------|
G|---------------------------------------------------------------------------|
D|-3-3-3-3-3-3-3-3---5-5-5-5-5-----------------------------------------------|
A|-3-3-3-3-3-3-3-3---5-5-5-5-5-----------------------------------------------|
E|-1-1-1-1-1-1-1-1---3-3-3-3-3-----------------------------------------------|
  F5                 G5

Chorus :

e|---------------------------------------------------------------------------|
B|---------------------------------------------------------------------------|
G|-----5----------------------------5----------------------------------------|
D|-3---5----5----7-------------3----5----7----5-------3------5---------------|
A|-3---3----5----7-------------3----3----7----5-------3------5---------------|
E|-1--------3----5-------------1---------5----3-------1------3---------------|
  F5   C5   G5   A5   x2       F5   C5   A5   G5      F5 x8  G5 x5

intro & verse


2nd pre chorus:

e|--------------------------------------------------------------------------|
B|--------------------------------------------------------------------------|
G|--------------------------------------------------------------------------|
D|--3-3-3-3-3-3-3-3---------------------------------------------------------|
A|--3-3-3-3-3-3-3-3---------------------------------------------------------|
E|--1-1-1-1-1-1-1-1---------------------------------------------------------|
    F5

chorus
solo


Gotta find you chorus:
e|------------------------------------------------|
B|------------------------------------------------|
G|------5-----------------------------------------|
D|-3----5----5----7-----3---------5---------------|
A|-3----3----5----7-----3---------5---------------|
E|-1---------3----5-----1---------3---------------| x2
   F5   C5   G5   A5    F5        G5

Chorus
Gotta find you chorus

Outro
e|----------------------------------------------------|
B|----------------------------------------------------|
G|------5--------------------------------------5------|
D|-3----5----7----5-------3------5-------3-2-5-5-7-3--|
A|-3----3----7----5-------3------5-------3-2-5-3-7-3--|
E|-1---------5----3-------1------3-------1-0-3---5-1--|
   F5   C5   A5   G5      F5 x8  G5 x5   F E G C A F

| /  slide up
| \  slide down
| h  hammer-on
| p  pull-off
| ~  vibrato
| +  harmonic
| x  Mute note
===============================================================================

            
            
Suggest correction
Creating personal tab
Creating personal tab
You can edit any tab online and save it as your Personal.

You can edit, replace or remove any tab part or add personal notes – all changes will be seen only by you.

Personal tabs can be accessed anytime from any device, even offline.
Learn more »
comments
print report bad tab
3 comments total.
0 reply
isaacoldham 51 Jul 12, 2008 07:19 PM

e|---------3-3----------------1-0-----------------------------------|
B|------1------1---------1--------1---------1-3-3-1-------1-----3--1|
G|--2---------------------------------0-----------------------------|
D|-------------------3-----3-------------------------0-------0------|
A|------------------------------------------------------------------|
E|------------------------------------------------------------------|

0 reply
Shawnypuff167 126 Jul 21, 2008 01:53 PM

its not light enought when i tabbed mine it was light

0 reply
sweeneytodd3160 10 Sep 28, 2008 10:51 AM

e|---------3------------------1-0-----------------------------------|
B|------1----1-----------1------------------1-3-1---------1-----3--1|
G|--2---------------------------------0-----------------0---0-------|
D|-------------------3-----3----------------------------------------|
A|------------------------------------------------------------------|
E|------------------------------------------------------------------|

guest
You may want to rate the tab now too:
select rating
Wanna post a correction for this tab? Suggest correction