Oops, an error
Loading. Please wait.

Until Youre Mine tab

version 2
version 2

Whole song

Interactive

2,715 views 1 this week
2 commentsread comments
1 2 3 4 5
3 more votes to show rating
add to favorites
×
Save as Personal and add changes to this tab that will be seen only by you. Learn more ›
×
You can save this tab as Personal to edit and correct it or add notes. All changes will be seen only by you. Learn more »
launch autoscroll
font size
0
reset
how to read this tab
guitar tuner
edit
Autoscroll
slow
fast
+/-
esc
set tempo
stop
Author
Difficulty
Tabbed by: x66x66

Watch for a video on how to play it on youtube.com/SquatDiddly

I'm 90% sure this is how you play the full song. I hope you guys like it. I spent a 
on it. It's my first full tab.


(/) Slide Up  (\) Slide Down  (h) Hammer On  (p) Pull Off  (b) Bend (r) Release (v) Vibrato


GUITAR 1:

Verse 1:

E|--------------------------------------6--------6--------------------------|
B|--7--------7--------7--------7--------------------------9--------9--------|
G|--------8--------8--------8--------8--------8--------8--------8--------8--|
D|-----8--------8--------8--------8--------8--------8--------8--------8-----|
A|--------------------------------------------------------------------------|
D|--------------------------------------------------------------------------|

E|--------------------------------------6--------6--------------6-------------|
B|--7--------7--------7--------7--------------------------9-----------9-------|
G|--------8--------8--------8--------8--------8--------8-----8-----8-----8----|
D|-----8--------8--------8--------8--------8--------8-------------------------|
A|----------------------------------------------------------------------------|
D|----------------------------------------------------------------------------|

repeat that 4 times

Pre-chorus 1:

E|---------------------|
B|--------7------------|
G|-----8---------------|
D|--9---------------9--| (the last note is quiet) x2
A|---------------------| (2nd time dont do the last note)
D|---------------------|

Chorus 1: (this may be hard to hear, but trust me its there)

E|--6-----6--7-----7-----------6-----6--|
B|--------------------9-----9-----------|
G|-----8--------8--------6--------6-----|
D|--------------------------------------|
A|--------------------------------------|
D|--------------------------------------|


E|--6-----6--7-----7-----------------|
B|--------------------9-----9--9-----|
G|-----8--------8--------6-----------|
D|-----------------------------------|
A|-----------------------------------|
D|-----------------------------------|


(the part below is between "here by my side" and "until your mine". it goes by kinda fast)

E|--6-----------6--|
B|-----9--7--9-----|
G|-----------------|
D|-----------------|
A|-----------------|
D|-----------------|

(ok back to the rest)

E|--6-----6--7-----7-----------6-----6--|
B|--------------------9-----9-----------|
G|-----8--------8--------6--------6-----|
D|--------------------------------------|
A|--------------------------------------|
D|--------------------------------------|

E|--------------------------|
B|---------12--11--9--6--7--|
G|--8--11-------------------|
D|--------------------------|  (the timing is hard on this but its during the
A|--------------------------|     "i wont rest until your mine")
D|--------------------------|


Verse 2:


E|----------------------------------------6--------6----------------------------|
B|--6h7--------7--------7--------7--------------------------9--------9----------|
G|----------8--------8--------8--------8--------8--------8--------8--------8----|
D|-------8--------8--------8--------8--------8--------8--------8--------8-------|
A|------------------------------------------------------------------------------|
D|------------------------------------------------------------------------------|

x2 then drum fill

E|--------------------------------------6--------6--------------------------|
B|--7--------7--------7--------7--------------------------9--------9--------|
G|--------8--------8--------8--------8--------8--------8--------8--------8--|
D|-----8--------8--------8--------8--------8--------8--------8--------8-----|
A|--------------------------------------------------------------------------|
D|--------------------------------------------------------------------------|

E|--------------------------------------6--------6--------------6-------------|
B|--7--------7--------7--------7--------------------------9-----------9-------|
G|--------8--------8--------8--------8--------8--------8-----8-----8-----8----|
D|-----8--------8--------8--------8--------8--------8-------------------------|
A|----------------------------------------------------------------------------|
D|----------------------------------------------------------------------------|

repeat 2 times

Pre-chorus 2:

E|---------------------|
B|--------7------------|
G|-----8---------------|
D|--9---------------9--| (the last note is still quiet) x2 (2nd time still
A|---------------------| dont play the last note)
D|---------------------|


Something also plays in the background acoustically with the line above,
im not sure what it is but its some variation of the verse riff


Chorus 2: (this may be hard to hear, but trust me its there)

E|--6-----6--7-----7-----------6-----6--|
B|--------------------9-----9-----------|
G|-----8--------8--------6--------6-----|
D|--------------------------------------|
A|--------------------------------------|
D|--------------------------------------|


E|--6-----6--7-----7----------------|
B|--------------------9-----9-------|
G|-----8--------8--------6----------|
D|----------------------------------|
A|----------------------------------|
D|----------------------------------|


E|--6-----6--7-----7-----------9-----9--6--------|
B|--------------------9-----9--------------9--7--|
G|-----8--------8--------6--------11-------------|
D|-----------------------------------------------|
A|-----------------------------------------------|
D|-----------------------------------------------|

E|--------------------------|
B|---------12--11--9--6--7--|
G|--8--11-------------------|
D|--------------------------|  (the timing is hard on this but its during the
A|--------------------------|     "i wont rest until your mine")
D|--------------------------|


Bridge intro:

E|----------------------------------------------------------------------------|
B|--6h7--------7--------7--------7--------4--------4--------4--------4--------|
G|-------8--------8--------8--------8--------4--------4--------4--------4-----|
D|----------8--------8--------8--------8--------6--------6--------6--------6--|
A|----------------------------------------------------------------------------|
D|----------------------------------------------------------------------------|

repeat that times 2. I know the 2nd time is different but i cant really tell what it is.

Bridge:

Guitar 1 does not play

Chorus 3:

E|--6-----6--7-----7-----------------------|
B|--------------------9-----9--7-----------|
G|-----8--------8--------6--------10--8----|
D|-----------------------------------------|
A|-----------------------------------------|
D|-----------------------------------------|

E|------------|
B|--7---------|
G|-----10--8--|
D|------------|
A|------------|
D|------------|


E|--6-----6--7-----7----------------|
B|--------------------9-----9-------|
G|-----8--------8--------6----------|
D|----------------------------------|
A|----------------------------------|
D|----------------------------------|

E|--6-----------6--|
B|-----9--7--9-----|
G|-----------------|
D|-----------------|
A|-----------------|
D|-----------------|

(ok back to the rest)

E|--6-----6--7-----7-----------9-----9--6------|
B|--------------------9-----9--------------7\--|
G|-----8--------8--------6--------11-----------|
D|---------------------------------------------|
A|---------------------------------------------|
D|---------------------------------------------|

Outro:

E|----------------------------------------6--------6-----------------------|
B|--6h7--------7--------7--------7--------------------------9-----------9--|
G|----------8--------8--------8--------8--------8--------8-----8-----8-----|
D|-------8--------8--------8--------8--------8--------8-----------8--------|
A|-------------------------------------------------------------------------|
D|-------------------------------------------------------------------------|

repeat 3 times...then

E|-----------------------------------------|
B|--7--------7--------6--------6--------6--|
G|--------8--------8--------8--------8--8--| let ring...
D|-----8--------8--------8--------8-----8--|
A|--------------------------------------6--|
D|-----------------------------------------|

GUITAR 2:


Verse 1:

doesnt play anything.

Pre-chorus 1:

E|------------|
B|------------|
G|--4------3--|
D|--4--4---3--|
A|--2--4---1--|
D|-----4------|

Chorus 1:

E|--------------------------|
B|--------------------------|
G|--8-----6-----8-----6--6--|
D|--8--6--6--4--8--6--6--6--|
A|--6--6--4--4--6--6--4--4--|
D|-----6-----4-----6--------|

E|--------------|
B|--------------|
G|--8-----6-----|
D|--8--6--6--4--|
A|--6--6--4--4--|
D|-----6-----4--|


"i wont rest until your mine"

    I  wont rest until your mine
E|------------------------------|
B|------------------------------|
G|--4----------------6-------8--|
D|--4----------------6--8----8--|
A|--2----------------4--8----6--|
D|----------------------8-------|

Verse 2:

does not play...

Pre-chorus 2:


E|-----------|
B|-----------|
G|--4-----6--|
D|--4--4--6--|
A|--2--4--4--|
D|-----4-----|


Chorus 2:

E|--------------------------|
B|--------------------------|
G|--8-----6-----8-----6--6--|
D|--8--6--6--4--8--6--6--6--|
A|--6--6--4--4--6--6--4--4--|
D|-----6-----4-----6--------|

E|--------------|
B|--------------|
G|--8-----6-----|
D|--8--6--6--4--|
A|--6--6--4--4--|
D|-----6-----4--|


"i wont rest until your mine"

    I  wont rest until your mine
E|------------------------------|
B|------------------------------|
G|--4----------------6--7-------|
D|--4----------------6--7----9--|  (?)
A|--2----------------4--5----9--|
D|---------------------------9--|


Bridge intro:

E|---------------|
B|---------------|
G|--6------3--4--|
D|--6------3--4--|
A|--4------1--2--|
D|---------------|


Bridge:

Listen for strum pattern. it isnt that hard at all.

E|--------------------------|
B|--------------------------|
G|--3--4--4--4--3--4--4--4--|
D|--3--4--4--4--3--4--4--4--|
A|--1--2--2--2--1--2--2--2--|
D|--------------------------|


E|--------------------------|
B|--------------------------|
G|--4--6--6--6--4--6--6--6--|
D|--4--6--6--6--4--6--6--6--|
A|--2--4--4--4--2--4--4--4--|
E|--------------------------|


 forget about fait and just hold me"
E|-------------------------------|
B|-------------------------------|
G|--8----------6--------------4--|
D|--8----------6--------------4--|     ALL of the bridge x2
A|--6----------4--------------2--|
D|-------------------------------|

then

E|--------|
B|--------|
G|--4--7--|
D|--4--7--|
A|--2--5--|
D|--------|

"mmiiiinneee" (listen for strum pattern its not hard)

E|--------------------------------------------------|
B|--------------------------------------------------|
G|--8--8--8--8--------------6--6--6--6--3--3--3--3--|
D|--8--8--8--8--6--6--6--6--6--6--6--6--3--3--3--3--| x2
A|--6--6--6--6--6--6--6--6--4--4--4--4--1--1--1--1--|
D|--------------6--6--6--6--------------------------|

Chorus 3:

E|--------------------------|
B|--------------------------|
G|--8-----6-----8-----6--6--|
D|--8--6--6--4--8--6--6--6--|
A|--6--6--4--4--6--6--4--4--|
D|-----6-----4-----6--------|

E|--------------|
B|--------------|
G|--8-----6-----|
D|--8--6--6--4--|
A|--6--6--4--4--|
D|-----6-----4--|


"i wont rest until your mine"

    I  wont rest until your mine
E|------------------------------|
B|------------------------------|
G|--4----------------6-------8--|
D|--4----------------6--8----8--|
A|--2----------------4--8----6--|
D|----------------------8-------|


Outro:

does not play!

            
            
Suggest correction
Creating personal tab
Creating personal tab
You can edit any tab online and save it as your Personal.

You can edit, replace or remove any tab part or add personal notes – all changes will be seen only by you.

Personal tabs can be accessed anytime from any device, even offline.
Learn more »
Give kudos to tab author, rate the tab!
1 2 3 4 5
comments
print report bad tab
2 comments total.
0 reply
X66x66 98 Jun 17, 2009 08:29 AM

EDIT:

I had a typo that I didnt see until now

Pre-chorus 1:

E|--------------|
B|--------------|
G|--4-----4--3--|
D|--4--4--4--3--|
A|--2--4--2--1--|
D|-----4--------|

0 reply
X66x66 98 Jun 17, 2009 08:31 AM

Ignore my comment above....

its simply

Pre-chorus 1:

E|------------|
B|------------|
G|--4------3--|
D|--4--4---3--|
A|--2--4---1--|
D|-----4------|

guest
You may want to rate the tab now too:
select rating
Wanna post a correction for this tab? Suggest correction