Oops, an error
Loading. Please wait.

Lunar Lament tab

version 1
version 1

Whole song

Interactive

807 views 1 this week
no commentswrite comment
1 2 3 4 5
3 more votes to show rating
add to favorites
×
Save as Personal and add changes to this tab that will be seen only by you. Learn more ›
×
You can save this tab as Personal to edit and correct it or add notes. All changes will be seen only by you. Learn more »
launch autoscroll
font size
0
reset
how to read this tab
guitar tuner
edit
Autoscroll
slow
fast
+/-
esc
set tempo
stop
#----------------------------------PLEASE NOTE---------------------------------#
#This file is the author's own work and represents their interpretation of the #
#song. You may only use this file for private study, scholarship, or research. #
#------------------------------------------------------------------------------#

LUNAR LAMENT
As recorded by Demons & Wizards
(From the 2005 Album TOUCHED BY THE CRIMSON KING)

Transcribed by Russ Elton (webmaster@abysslord.com), Jordan B. (sansamppsa1@hotmail.com)
        

Words and Music by Jon Schaffer/Hansi Kürsch
Arranged by Russ Elton (webmaster@abysslord.com), Jordan B. (sansamppsa1@hotmail.com)

Gtr I (Eb Ab Db Gb Bb Eb) - 'Distortion Guitar'
Gtr II (Eb Ab Db Gb Bb Eb) - 'Distortion Guitar'
Gtr III (Eb Ab Db Gb Bb Eb) - 'Lead Guitar'
Gtr IV (Eb Ab Db Gb Bb Eb) - 'Lead Guitar'

 Intro (Solo)
  Q=186
             G5A5
 4/4
  Gtr IV
  W          W               W
|----------|--------------|-------------------------|
|----------|--------------|-------------------------|
|----------|--------------|-------------------------|
|----------|--------------|-------------------------|
|----------|--------------|-------------------------|
|----------|--------------|-------------------------|
|
| Gtr III
| W          W               E   E E  E  E  E  E  E
|----------|--------------|-------------------------|
|----------|--------------|----------------10-12-13-|
|----------|--------------|-----12s9-10-12----------|
|----------|--------------|-------------------------|
|----------|--------------|-------------------------|
|----------|--------------|-------------------------|
|
| Gtrs I, II
| W          E E +H.        +W
|----------|--------------|-------------------------|
|----------|--------------|-------------------------|
|----------|--------------|-------------------------|
|----------|--------------|-------------------------|
|----------|-5-7-(7)------|-(7)---------------------|
|----------|-3-5-(5)------|-(5)---------------------|


  G5 A5
   W                  Q   E  E  +E   E  Q
|-----------------|---------12-(12)----------|
|-----------------|-----------------15-13----|
|-----------------|--------------------------|
|-----------------|--------------------------|
|-----------------|--------------------------|
|-----------------|--------------------------|
|
|     ~~~~~~~~~~~~~~~~~~~
|  E  E  +H.         +Q.     E  +E   E  Q
|-10-12-(12)------|-(12)---------------------|
|-----------------|---------13-(13)-12-10----|
|-----------------|--------------------------|
|-----------------|--------------------------|
|-----------------|--------------------------|
|-----------------|--------------------------|
|
|  E  E  +H.         +W
|-----------------|--------------------------|
|-----------------|--------------------------|
|-----------------|--------------------------|
|-----------------|--------------------------|
|--5--7--(7)------|--(7)---------------------|
|--3--5--(5)------|--(5)---------------------|


     G5 A5
                ~~~~~~~~~~~~
   a  H         H       +E   E  E  E  E  E  E  E
|--------------------|---------------------------|
|-12h13--------------|------------------10-12-13-|
|--------------14----|-(14)-12s=9-10-12----------|
|--------------------|---------------------------|
|--------------------|---------------------------|
|--------------------|---------------------------|
|
|               ~~~~~~~~~~~~
|  a  H         H       +E   E  E  E  E  E  E  E
|--------------------|---------------------------|
|--8h10--------------|---------------------------|
|---------------9----|--(9)----------------------|
|--------------------|------------------15-17-19-|
|--------------------|------19s15-17-19----------|
|--------------------|---------------------------|
|
|     E E +H.           +W
|--------------------|---------------------------|
|--------------------|---------------------------|
|--------------------|---------------------------|
|--------------------|---------------------------|
|-----5-7-(7)--------|--(7)----------------------|
|-----3-5-(5)--------|--(5)----------------------|


  G5 A5
      ~~~~~~~~~~~~~
                           |--3---|  |--3---|  |--3--|  |--3--|
   E  Q.       +Q.    E    E   E  E  E   E  E  E  E  E  E  E  E
|-10-12-------(12)------|------------------------------19----19--||
|-----------------------|-----------20-----20-22-20-22----22-----||
|--------------------19-|-21--19-21-----21-----------------------||
|-----------------------|----------------------------------------||
|-----------------------|----------------------------------------||
|-----------------------|----------------------------------------||
|
|               ~~~~
|                          |--3---|  |--3---|  |--3--|  |--3--|
|  E  Q.       +Q.    E    E   E  E  E   E  E  E  E  E  E  E  E
|-----------------------|------------------------------15----15--||
|-----------------------|-----------15-----15-17-15-17----17-----||
|-16-17-------(17)---16-|-17--16-17-----17-----------------------||
|-----------------------|----------------------------------------||
|-----------------------|----------------------------------------||
|-----------------------|----------------------------------------||
|
|  E  E  +H.              +Q         H.
|-----------------------|----------------------------------------||
|-----------------------|----------------------------------------||
|-----------------------|----------------------------------------||
|-----------------------|----------------------------------------||
|--5--7--(7)------------|-(7)------------------------------------||
|--3--5--(5)------------|-(5)-------/x\--------------------------||


 Pre-Verse
  N.C.
  Gtrs III, IV
                       >
   ~~~~~~~~~~~~~~~~~~~~~~~
   W                  +W                  W                 W
|-20---------------|-(20)---------------|-----------------|----------------|
|-22---------------|-(22)---------------|-----------------|----------------|
|------------------|--------------------|-----------------|----------------|
|------------------|--------------------|-----------------|----------------|
|------------------|--------------------|-----------------|----------------|
|------------------|--------------------|-----------------|----------------|
|
| Gtrs I, II
|  PM-------------------------------------------------------------|   PM
|  E E E E E E E E     E  E E E E E E E   E E E E E E E E   E E E E E E Q
|------------------|--------------------|-----------------|---------3------|
|--------3-----1---|------0-----0-1-0---|-------3-----1---|---0---------3--|
|------2---2-----2-|--------2-----------|-----2---2-----2-|-----2----------|
|----2-------2-----|---2------2-------2-|---2-------2-----|-2-----2---2----|
|--0---------------|--------------------|-0---------------|----------------|
|------------------|--------------------|-----------------|----------------|


  Gtrs I, II
  PM--------------------------------------------|                 PM--|
  E E E E E E E E   E E E E E E E E   E E E E E E Q    +H     +E  E E E
|-----------------|-----------------|----------------|------------------|
|-------3-----1---|---0-----0-1-0---|----------------|------------------|
|-----2---2-----2-|-----2-----------|-----0-----0----|------------------|
|---2-------2-----|-2-----2-------2-|---2-----0------|------------------|
|-0---------------|-----------------|-3-----2--------|----------------2-|
|-----------------|-----------------|-------------3--|-(3)----(3)-0-3---|


  Gtr II
  PM----------------------------------------------------------|   PM
  E E E E E E E E   E E E E E E E E   E E E E E E E E   E E E E E E Q
|-----------------|-----------------|-----------------|---------7------|
|-------6-----5---|---3-----3-5-3---|-------6-----5---|---3---------6--|
|-----7---5-----5-|-----5---------4-|-----7---5-----5-|-----5----------|
|---7-------7-----|-7-----7---------|---7-------7-----|-7-----7---7----|
|-0---------------|-----------------|-0---------------|----------------|
|-----------------|-----------------|-----------------|----------------|
|
| Gtr I
| PM----------------------------------------------------------|   PM
| E E E E E E E E   E E E E E E E E   E E E E E E E E   E E E E E E Q
|-----------------|-----------------|-----------------|---------3------|
|-------3-----1---|---0-----0-1-0---|-------3-----1---|---0---------3--|
|-----2---2-----2-|-----2-----------|-----2---2-----2-|-----2----------|
|---2-------2-----|-2-----2-------2-|---2-------2-----|-2-----2---2----|
|-0---------------|-----------------|-0---------------|----------------|
|-----------------|-----------------|-----------------|----------------|


  PM------------------------------|                  ~~~~~~~~~
  E E E E E E E E   E E E E E E E E   Q.     E +Q    Q    +W
|-----------------|-----------------|-------------------|------------------||
|-------6-----5---|---3-----3-5-3---|-------------------|------------------||
|-----7---5-----5-|-----5---------4-|-9------7-(7)------|------------------||
|---7-------7-----|-7-----7---------|----------------9--|-(9)--------------||
|-0---------------|-----------------|-------------------|------------------||
|-----------------|-----------------|-------------------|------------------||
|
| PM-----------------------------------------------|                 PM--|
| E E E E E E E E   E E E E E E E E   E  E E E  E  E Q    +H     +E  E E E
|-----------------|-----------------|-------------------|------------------||
|-------3-----1---|---0-----0-1-0---|-------------------|------------------||
|-----2---2-----2-|-----2-----------|------0-------0----|------------------||
|---2-------2-----|-2-----2-------2-|----2------0-------|------------------||
|-0---------------|-----------------|-3------2----------|----------------2-||
|-----------------|-----------------|----------------3--|-(3)----(3)-0-3---||


 Verse
       Am                  D5/A                          Am
  Gtrs I, II
                     PM  PM                        PM  PM
  H    H      +H     E E E E   +W           +H     E E E E
|-----------|----------------|------------|----------------|
|------5----|-(5)------------|------------|--------------5-|
|------5----|-(5)----------7-|-(7)--------|-(7)----------5-|
|------7----|-(7)------7---7-|-(7)--------|-(7)------7---7-|
|-0----0----|-(0)----0-0-0-0-|-(0)--------|-(0)----0-0-0-0-|
|-----------|----------------|------------|----------------|


                              N.C.(C5)           N.C.
                          PM|                  PM           PM--|
  +W           +H     +E  E E E   +Q   E E E E E E   +H     E E E E
|------------|------------------|------------------|----------------|
|-(5)--------|-(5)----(5)-------|------------------|----------------|
|-(5)--------|-(5)----(5)-------|------5-5-5-5-----|----------------|
|-(7)--------|-(7)----(7)-------|------5-5-5-5-----|----------------|
|-(0)--------|-(0)----(0)-0-2-3-|-(3)----------3-2-|-(2)----2---2-0-|
|------------|------------------|------------------|----------3-----|


         Am                  D5/A                          Am
                       PM  PM                        PM  PM
  +H     H      +H     E E E E   +W           +H     E E E E
|-------------|----------------|------------|----------------|
|--------5----|-(5)------------|------------|--------------5-|
|--------5----|-(5)----------7-|-(7)--------|-(7)----------5-|
|--------7----|-(7)------7---7-|-(7)--------|-(7)------7---7-|
|-(0)----0----|-(0)----0-0-0-0-|-(0)--------|-(0)----0-0-0-0-|
|-------------|----------------|------------|----------------|


                              N.C.(C5)           N.C.             G5
                          PM|                  PM
  +W           +H     +E  E E E   +Q   E E E E E E   +H     E E E E
|------------|------------------|------------------|----------------||
|-(5)--------|-(5)----(5)-------|------------------|----------------||
|-(5)--------|-(5)----(5)-------|------5-5-5-5-----|----------------||
|-(7)--------|-(7)----(7)-------|------5-5-5-5-----|----------------||
|-(0)--------|-(0)----(0)-0-2-3-|-(3)----------3-2-|-(2)----2---2-5-||
|------------|------------------|------------------|----------3---3-||


 Chorus
      A5                       Bb5
           PM|       PM|     PM  PM
  +E  E Q  E E E E   E E E E E E E E
|------------------|-----------------|
|------------------|-----------------|
|------------------|-----------------|
|------------------|-----------------|
|-(5)-7-7------7-7-|-----7-7---8---8-|
|-(3)-5-5--5-5-5-5-|-5-5-5-5-5-6-0-6-|


      G5A5                         G5      A5
           PM|       PM|     PM  PM             PM|
  +E  E Q  E E E E   E E E E E E E E   +E  E Q  E E E E
|------------------|-----------------|------------------|
|------------------|-----------------|------------------|
|------------------|-----------------|------------------|
|------------------|-----------------|------------------|
|-(8)-5-7------7-7-|-----7-7---7---5-|-(5)-7-7------7-7-|
|-(6)-3-5--5-5-5-5-|-5-5-5-5-5-5-0-3-|-(3)-5-5--5-5-5-5-|


            C5             G5A5
  PM|     PM   PM               PM|
  E E E E E  E E  E    +E  E Q  E E E E
|-------------------|-------------------|
|-------------------|-------------------|
|-------------------|-------------------|
|-------------------|-------------------|
|-----7-7---10---10-|-(10)-5-7------7-7-|
|-5-5-5-5-5--8-8--8-|--(8)-3-5--5-5-5-5-|


                C5         N.C.  G/B        N.C.
  PM|                      PM--|            PM--|
  E E E E E E E E   +H     E E E E   +H     E E E E
|-----------------|----------------|----------------||
|-----------------|----------------|----------------||
|-----------------|----------------|----------------||
|---------------5-|-(5)----------5-|-(5)------------||
|-----7-7-7-7-7-3-|-(3)----3-0-3-2-|-(2)----2---2-0-||
|-5-5-5-5-5-5-5---|----------------|----------3-----||


 Verse
         Am                  D5/A                          Am
                       PM  PM                        PM  PM
  +H     H      +H     E E E E   +W           +H     E E E E
|-------------|----------------|------------|----------------|
|--------5----|-(5)------------|------------|--------------5-|
|--------5----|-(5)----------7-|-(7)--------|-(7)----------5-|
|--------7----|-(7)------7---7-|-(7)--------|-(7)------7---7-|
|-(0)----0----|-(0)----0-0-0-0-|-(0)--------|-(0)----0-0-0-0-|
|-------------|----------------|------------|----------------|


                              N.C.(C5)           N.C.
                          PM|                  PM           PM--|
  +W           +H     +E  E E E   +Q   E E E E E E   +H     E E E E
|------------|------------------|------------------|----------------|
|-(5)--------|-(5)----(5)-------|------------------|----------------|
|-(5)--------|-(5)----(5)-------|------5-5-5-5-----|----------------|
|-(7)--------|-(7)----(7)-------|------5-5-5-5-----|----------------|
|-(0)--------|-(0)----(0)-0-2-3-|-(3)----------3-2-|-(2)----2---2-0-|
|------------|------------------|------------------|----------3-----|


         Am                  D5/A                          Am
                       PM  PM                        PM  PM
  +H     H      +H     E E E E   +W           +H     E E E E
|-------------|----------------|------------|----------------|
|--------5----|-(5)------------|------------|--------------5-|
|--------5----|-(5)----------7-|-(7)--------|-(7)----------5-|
|--------7----|-(7)------7---7-|-(7)--------|-(7)------7---7-|
|-(0)----0----|-(0)----0-0-0-0-|-(0)--------|-(0)----0-0-0-0-|
|-------------|----------------|------------|----------------|


                              N.C.(C5)           N.C.             G5
                          PM|                  PM
  +W           +H     +E  E E E   +Q   E E E E E E   +H     E E E E
|------------|------------------|------------------|----------------||
|-(5)--------|-(5)----(5)-------|------------------|----------------||
|-(5)--------|-(5)----(5)-------|------5-5-5-5-----|----------------||
|-(7)--------|-(7)----(7)-------|------5-5-5-5-----|----------------||
|-(0)--------|-(0)----(0)-0-2-3-|-(3)----------3-2-|-(2)----2---2-5-||
|------------|------------------|------------------|----------3---3-||


 Chorus
      A5                       Bb5
           PM|       PM|     PM  PM
  +E  E Q  E E E E   E E E E E E E E
|------------------|-----------------|
|------------------|-----------------|
|------------------|-----------------|
|------------------|-----------------|
|-(5)-7-7------7-7-|-----7-7---8---8-|
|-(3)-5-5--5-5-5-5-|-5-5-5-5-5-6-0-6-|


      G5A5                         G5      A5
           PM|       PM|     PM  PM             PM|
  +E  E Q  E E E E   E E E E E E E E   +E  E Q  E E E E
|------------------|-----------------|------------------|
|------------------|-----------------|------------------|
|------------------|-----------------|------------------|
|------------------|-----------------|------------------|
|-(8)-5-7------7-7-|-----7-7---7---5-|-(5)-7-7------7-7-|
|-(6)-3-5--5-5-5-5-|-5-5-5-5-5-5-0-3-|-(3)-5-5--5-5-5-5-|


            C5             G5A5
  PM|     PM   PM               PM|
  E E E E E  E E  E    +E  E Q  E E E E
|-------------------|-------------------|
|-------------------|-------------------|
|-------------------|-------------------|
|-------------------|-------------------|
|-----7-7---10---10-|-(10)-5-7------7-7-|
|-5-5-5-5-5--8-8--8-|--(8)-3-5--5-5-5-5-|


                C5         N.C.  G/B        N.C.
  PM|                      PM--|            PM--|
  E E E E E E E E   +H     E E E E   +H     E E E E
|-----------------|----------------|----------------||
|-----------------|----------------|----------------||
|-----------------|----------------|----------------||
|---------------5-|-(5)----------5-|-(5)------------||
|-----7-7-7-7-7-3-|-(3)----3-0-3-2-|-(2)----2---2-0-||
|-5-5-5-5-5-5-5---|----------------|----------3-----||


 Verse
            Am                            D5/A
  Gtr II
   PM----------------------------------------
   E  E E E E S S E E    E  E E E E S S E E
|---------------------|---------------------|
|---------------------|---------------------|
|---------------------|---------------------|
|---------------------|---------------------|
|--0--0-0-0-0-0-0-0-0-|--0--0-0-0-0-0-0-0-0-|
|---------------------|---------------------|
|
| Gtr I
|                                 PM    PM
| +H        H           +H        E E   E E
|---------------------|---------------------|
|-----------5---------|-(5)-----------------|
|-----------5---------|-(5)---------------7-|
|-----------7---------|-(7)---------7-----7-|
|-(0)-------0---------|-(0)-------0-0---0-0-|
|---------------------|---------------------|


                                          Am
 -----------------------------------------|
   E  E E E E S S E E    E  E E E E S S E E
|---------------------|---------------------|
|---------------------|---------------------|
|---------------------|---------------------|
|---------------------|---------------------|
|--0--0-0-0-0-0-0-0-0-|--0--0-0-0-0-0-0-0-0-|
|---------------------|---------------------|
|
|                                 PM    PM
| +W                    +H        E E   E E
|---------------------|---------------------|
|---------------------|-------------------5-|
|-(7)-----------------|-(7)---------------5-|
|-(7)-----------------|-(7)---------7-----7-|
|-(0)-----------------|-(0)-------0-0---0-0-|
|---------------------|---------------------|


                                          N.C.(C5)
   PM----------------------------------------
   E  E E E E S S E E    E  E E E  E  E E E
|---------------------|---------------------|
|---------------------|---------------------|
|---------------------|---------------------|
|---------------------|---------------------|
|--0--0-0-0-0-0-0-0-0-|--0--0-0-0--0--0-2-3-|
|---------------------|---------------------|
|
|                                     PM|
| +W                    +H        +E  E E E
|---------------------|---------------------|
|-(5)-----------------|-(5)-------(5)-------|
|-(5)-----------------|-(5)-------(5)-------|
|-(7)-----------------|-(7)-------(7)-------|
|-(0)-----------------|-(0)-------(0)-0-2-3-|
|---------------------|---------------------|


                  N.C.
 -------------------------------------|
   E  E E E E E E E    E  E E E E E E E
|-------------------|--------------------|
|-------------------|--------------------|
|-------------------|--------------------|
|-------------------|--------------------|
|--3--3-3-3-3-5-3-2-|--2--2-2-2-2---2-0--|
|-------------------|-------------3------|
|
|               PM              PM--|
| +Q    E E E E E E   +H        E E E E
|-------------------|--------------------|
|-------------------|--------------------|
|-------5-5-5-5-----|--------------------|
|-------5-5-5-5-----|--------------------|
|-(3)-----------3-2-|-(2)-------2---2-0--|
|-------------------|-------------3------|


            Am                            D5/A
   PM----------------------------------------
   E  E E E E S S E E    E  E E E E S S E E
|---------------------|---------------------|
|---------------------|---------------------|
|---------------------|---------------------|
|---------------------|---------------------|
|--0--0-0-0-0-0-0-0-0-|--0--0-0-0-0-0-0-0-0-|
|---------------------|---------------------|
|
|                                 PM    PM
| +H        H           +H        E E   E E
|---------------------|---------------------|
|-----------5---------|-(5)-----------------|
|-----------5---------|-(5)---------------7-|
|-----------7---------|-(7)---------7-----7-|
|-(0)-------0---------|-(0)-------0-0---0-0-|
|---------------------|---------------------|


                                          Am
 -----------------------------------------|
   E  E E E E S S E E    E  E E E E S S E E
|---------------------|---------------------|
|---------------------|---------------------|
|---------------------|---------------------|
|---------------------|---------------------|
|--0--0-0-0-0-0-0-0-0-|--0--0-0-0-0-0-0-0-0-|
|---------------------|---------------------|
|
|                                 PM    PM
| +W                    +H        E E   E E
|---------------------|---------------------|
|---------------------|-------------------5-|
|-(7)-----------------|-(7)---------------5-|
|-(7)-----------------|-(7)---------7-----7-|
|-(0)-----------------|-(0)-------0-0---0-0-|
|---------------------|---------------------|


                                          C5
   PM-----------------------------------|
   E  E E E E S S E E    E  E E E  E  E E E
|---------------------|---------------------|
|---------------------|---------------------|
|---------------------|---------------------|
|---------------------|-------------------5-|
|--0--0-0-0-0-0-0-0-0-|--0--0-0-0--0--0-2-3-|
|---------------------|---------------------|
|
|                                     PM|
| +W                    +H        +E  E E E
|---------------------|---------------------|
|-(5)-----------------|-(5)-------(5)-------|
|-(5)-----------------|-(5)-------(5)-------|
|-(7)-----------------|-(7)-------(7)-----5-|
|-(0)-----------------|-(0)-------(0)-0-2-3-|
|---------------------|---------------------|


         N.C.  G/B        N.C.  A5
                                                   2/4
         PM--|
  +H     E E E E   +H     E E E E   Q  +Q    H      H
|----------------|----------------|---------------|------||
|----------------|----------------|---------------|------||
|----------------|----------------|---------------|------||
|-(5)----------5-|-(5)------------|---------------|------||
|-(3)----3-0-3-2-|-(2)----2---2-7-|-7--(7)\-------|------||
|----------------|----------3---5-|-5--(5)\-------|------||
|
|        PM--|
| +H     E E E E   +H     E E E E   Q  +Q    H      H
|----------------|----------------|---------------|------||
|----------------|----------------|---------------|------||
|----------------|----------------|---------------|------||
|-(5)----------5-|-(5)------------|---------------|------||
|-(3)----3-0-3-2-|-(2)----2---2-7-|-7--(7)\-------|------||
|----------------|----------3---5-|-5--(5)\-------|------||


 Bridge
  N.C.
 4/4
  Gtrs I, II
  PM----------------------------------------------------------|   PM
  E E E E E E E E   E E E E E E E E   E E E E E E E E   E E E E E E Q
|-----------------|-----------------|-----------------|---------3-------|
|-------3-----1---|---0-----0-1-0---|-------3-----1---|---0---------3---|
|-----2---2-----2-|-----2-----------|-----2---2-----2-|-----2-----------|
|---2-------2-----|-2-----2-------2-|---2-------2-----|-2-----2---2-----|
|-0---------------|-----------------|-0---------------|-----------------|
|-----------------|-----------------|-----------------|-----------------|


  PM--------------------------------------------|                 PM--|
  E E E E E E E E   E E E E E E E E   E E E E E E Q    +H     +E  E E E
|-----------------|-----------------|----------------|------------------|
|-------3-----1---|---0-----0-1-0---|----------------|------------------|
|-----2---2-----2-|-----2-----------|-----0-----0----|------------------|
|---2-------2-----|-2-----2-------2-|---2-----0------|------------------|
|-0---------------|-----------------|-3-----2--------|----------------2-|
|-----------------|-----------------|-------------3--|-(3)----(3)-0-3---|


  Gtr II
  PM----------------------------------------------------------|   PM
  E E E E E E E E   E E E E E E E E   E E E E E E E E   E E E E E E Q
|-----------------|-----------------|-----------------|---------7------|
|-------6-----5---|---3-----3-5-3---|-------6-----5---|---3---------6--|
|-----7---5-----5-|-----5---------4-|-----7---5-----5-|-----5----------|
|---7-------7-----|-7-----7---------|---7-------7-----|-7-----7---7----|
|-0---------------|-----------------|-0---------------|----------------|
|-----------------|-----------------|-----------------|----------------|
|
| Gtr I
| PM----------------------------------------------------------|   PM
| E E E E E E E E   E E E E E E E E   E E E E E E E E   E E E E E E Q
|-----------------|-----------------|-----------------|---------3------|
|-------3-----1---|---0-----0-1-0---|-------3-----1---|---0---------3--|
|-----2---2-----2-|-----2-----------|-----2---2-----2-|-----2----------|
|---2-------2-----|-2-----2-------2-|---2-------2-----|-2-----2---2----|
|-0---------------|-----------------|-0---------------|----------------|
|-----------------|-----------------|-----------------|----------------|


  PM------------------------------|                  ~~~~~~~~~
  E E E E E E E E   E E E E E E E E   Q.     E +Q    Q    +W
|-----------------|-----------------|-------------------|------------------||
|-------6-----5---|---3-----3-5-3---|-------------------|------------------||
|-----7---5-----5-|-----5---------4-|-9------7-(7)------|------------------||
|---7-------7-----|-7-----7---------|----------------9--|-(9)--------------||
|-0---------------|-----------------|-------------------|------------------||
|-----------------|-----------------|-------------------|------------------||
|
| PM-----------------------------------------------|                 PM--|
| E E E E E E E E   E E E E E E E E   E  E E E  E  E Q    +H     +E  E E E
|-----------------|-----------------|-------------------|------------------||
|-------3-----1---|---0-----0-1-0---|-------------------|------------------||
|-----2---2-----2-|-----2-----------|------0-------0----|------------------||
|---2-------2-----|-2-----2-------2-|----2------0-------|------------------||
|-0---------------|-----------------|-3------2----------|----------------2-||
|-----------------|-----------------|----------------3--|-(3)----(3)-0-3---||


 Verse
       Am                  D5/A                          Am
  Gtrs I, II
                     PM  PM                        PM  PM
  H    H      +H     E E E E   +W           +H     E E E E
|-----------|----------------|------------|----------------|
|------5----|-(5)------------|------------|--------------5-|
|------5----|-(5)----------7-|-(7)--------|-(7)----------5-|
|------7----|-(7)------7---7-|-(7)--------|-(7)------7---7-|
|-0----0----|-(0)----0-0-0-0-|-(0)--------|-(0)----0-0-0-0-|
|-----------|----------------|------------|----------------|


                              N.C.(C5)           N.C.
                          PM|                  PM           PM--|
  +W           +H     +E  E E E   +Q   E E E E E E   +H     E E E E
|------------|------------------|------------------|----------------|
|-(5)--------|-(5)----(5)-------|------------------|----------------|
|-(5)--------|-(5)----(5)-------|------5-5-5-5-----|----------------|
|-(7)--------|-(7)----(7)-------|------5-5-5-5-----|----------------|
|-(0)--------|-(0)----(0)-0-2-3-|-(3)----------3-2-|-(2)----2---2-0-|
|------------|------------------|------------------|----------3-----|


         Am                  D5/A                          Am
                       PM  PM                        PM  PM
  +H     H      +H     E E E E   +W           +H     E E E E
|-------------|----------------|------------|----------------|
|--------5----|-(5)------------|------------|--------------5-|
|--------5----|-(5)----------7-|-(7)--------|-(7)----------5-|
|--------7----|-(7)------7---7-|-(7)--------|-(7)------7---7-|
|-(0)----0----|-(0)----0-0-0-0-|-(0)--------|-(0)----0-0-0-0-|
|-------------|----------------|------------|----------------|


                              N.C.(C5)           N.C.             G5
                          PM|                  PM
  +W           +H     +E  E E E   +Q   E E E E E E   +H     E E E E
|------------|------------------|------------------|----------------||
|-(5)--------|-(5)----(5)-------|------------------|----------------||
|-(5)--------|-(5)----(5)-------|------5-5-5-5-----|----------------||
|-(7)--------|-(7)----(7)-------|------5-5-5-5-----|----------------||
|-(0)--------|-(0)----(0)-0-2-3-|-(3)----------3-2-|-(2)----2---2-5-||
|------------|------------------|------------------|----------3---3-||


   Chorus
        A5                       Bb5
             PM|       PM|     PM  PM
    +E  E Q  E E E E   E E E E E E E E
||-------------------|-----------------|
||o------------------|-----------------|
||-------------------|-----------------|
||-------------------|-----------------|
||o-(5)-7-7------7-7-|-----7-7---8---8-|
||--(3)-5-5--5-5-5-5-|-5-5-5-5-5-6-0-6-|


      G5A5                         G5      A5
           PM|       PM|     PM  PM             PM|
  +E  E Q  E E E E   E E E E E E E E   +E  E Q  E E E E
|------------------|-----------------|--------------------|
|------------------|-----------------|--------------------|
|------------------|-----------------|--------------------|
|------------------|-----------------|--------------------|
|-(8)-5-7------7-7-|-----7-7---7---5-|-(5)-7-7------7-7---|
|-(6)-3-5--5-5-5-5-|-5-5-5-5-5-5-0-3-|-(3)-5-5--5-5-5-5---|


            C5             G5A5
  PM|     PM   PM               PM|
  E E E E E  E E  E    +E  E Q  E E E E
|-------------------|-------------------|
|-------------------|-------------------|
|-------------------|-------------------|
|-------------------|-------------------|
|-----7-7---10---10-|-(10)-5-7------7-7-|
|-5-5-5-5-5--8-8--8-|--(8)-3-5--5-5-5-5-|


                C5         N.C.  G/B        N.C.  G5
  PM|                      PM--|            PM--|
  E E E E E E E E   +H     E E E E   +H     E E E E
|-----------------|----------------|-----------------||
|-----------------|----------------|----------------o||
|-----------------|----------------|-----------------||
|---------------5-|-(5)----------5-|-(5)-------------||
|-----7-7-7-7-7-3-|-(3)----3-0-3-2-|-(2)----2---2-5-o||
|-5-5-5-5-5-5-5---|----------------|----------3---3--||


      A5                           C5         N.C.  G/B        N.C.
           PM|       PM|                      PM--|            PM--|
  +E  E Q  E E E E   E E E E E E E E   +H     E E E E   +H     E E E E
|------------------|-----------------|----------------|----------------||
|------------------|-----------------|----------------|----------------||
|------------------|-----------------|----------------|----------------||
|------------------|---------------5-|-(5)----------5-|-(5)------------||
|-(5)-7-7------7-7-|-----7-7-7-7-7-3-|-(3)----3-0-3-2-|-(2)----2---2-0-||
|-(3)-5-5--5-5-5-5-|-5-5-5-5-5-5-5---|----------------|----------3-----||


 Verse
            Am                            D5/A
  Gtr II
   PM----------------------------------------
   E  E E E E S S E E    E  E E E E S S E E
|---------------------|---------------------|
|---------------------|---------------------|
|---------------------|---------------------|
|---------------------|---------------------|
|--0--0-0-0-0-0-0-0-0-|--0--0-0-0-0-0-0-0-0-|
|---------------------|---------------------|
|
| Gtr I
|                                 PM    PM
| +H        H           +H        E E   E E
|---------------------|---------------------|
|-----------5---------|-(5)-----------------|
|-----------5---------|-(5)---------------7-|
|-----------7---------|-(7)---------7-----7-|
|-(0)-------0---------|-(0)-------0-0---0-0-|
|---------------------|---------------------|


                                          Am
 -----------------------------------------|
   E  E E E E S S E E    E  E E E E S S E E
|---------------------|---------------------|
|---------------------|---------------------|
|---------------------|---------------------|
|---------------------|---------------------|
|--0--0-0-0-0-0-0-0-0-|--0--0-0-0-0-0-0-0-0-|
|---------------------|---------------------|
|
|                                 PM    PM
| +W                    +H        E E   E E
|---------------------|---------------------|
|---------------------|-------------------5-|
|-(7)-----------------|-(7)---------------5-|
|-(7)-----------------|-(7)---------7-----7-|
|-(0)-----------------|-(0)-------0-0---0-0-|
|---------------------|---------------------|


                                          N.C.(C5)
   PM----------------------------------------
   E  E E E E S S E E    E  E E E  E  E E E
|---------------------|---------------------|
|---------------------|---------------------|
|---------------------|---------------------|
|---------------------|---------------------|
|--0--0-0-0-0-0-0-0-0-|--0--0-0-0--0--0-2-3-|
|---------------------|---------------------|
|
|                                     PM|
| +W                    +H        +E  E E E
|---------------------|---------------------|
|-(5)-----------------|-(5)-------(5)-------|
|-(5)-----------------|-(5)-------(5)-------|
|-(7)-----------------|-(7)-------(7)-------|
|-(0)-----------------|-(0)-------(0)-0-2-3-|
|---------------------|---------------------|


                  N.C.
 -------------------------------------|
   E  E E E E E E E    E  E E E E E E E
|-------------------|--------------------||
|-------------------|--------------------||
|-------------------|--------------------||
|-------------------|--------------------||
|--3--3-3-3-3-5-3-2-|--2--2-2-2-2---2-0--||
|-------------------|-------------3------||
|
|               PM              PM--|
| +Q    E E E E E E   +H        E E E E
|-------------------|--------------------||
|-------------------|--------------------||
|-------5-5-5-5-----|--------------------||
|-------5-5-5-5-----|--------------------||
|-(3)-----------3-2-|-(2)-------2---2-0--||
|-------------------|-------------3------||


            Am                            D5/A
   PM----------------------------------------
   E  E E E E S S E E    E  E E E E S S E E
|---------------------|---------------------|
|---------------------|---------------------|
|---------------------|---------------------|
|---------------------|---------------------|
|--0--0-0-0-0-0-0-0-0-|--0--0-0-0-0-0-0-0-0-|
|---------------------|---------------------|
|
|                                 PM    PM
| +H        H           +H        E E   E E
|---------------------|---------------------|
|-----------5---------|-(5)-----------------|
|-----------5---------|-(5)---------------7-|
|-----------7---------|-(7)---------7-----7-|
|-(0)-------0---------|-(0)-------0-0---0-0-|
|---------------------|---------------------|


                                          Am
 -----------------------------------------|
   E  E E E E S S E E    E  E E E E S S E E
|---------------------|---------------------|
|---------------------|---------------------|
|---------------------|---------------------|
|---------------------|---------------------|
|--0--0-0-0-0-0-0-0-0-|--0--0-0-0-0-0-0-0-0-|
|---------------------|---------------------|
|
|                                 PM    PM
| +W                    +H        E E   E E
|---------------------|---------------------|
|---------------------|-------------------5-|
|-(7)-----------------|-(7)---------------5-|
|-(7)-----------------|-(7)---------7-----7-|
|-(0)-----------------|-(0)-------0-0---0-0-|
|---------------------|---------------------|


                                          N.C.(C5)
   PM----------------------------------------
   E  E E E E S S E E    E  E E E  E  E E E
|---------------------|---------------------|
|---------------------|---------------------|
|---------------------|---------------------|
|---------------------|---------------------|
|--0--0-0-0-0-0-0-0-0-|--0--0-0-0--0--0-2-3-|
|---------------------|---------------------|
|
|                                     PM|
| +W                    +H        +E  E E E
|---------------------|---------------------|
|-(5)-----------------|-(5)-------(5)-------|
|-(5)-----------------|-(5)-------(5)-------|
|-(7)-----------------|-(7)-------(7)-------|
|-(0)-----------------|-(0)-------(0)-0-2-3-|
|---------------------|---------------------|


                  N.C.                G5
 -----------------------------------|
   E  E E E E E E E    E  E E E E E E E
|-------------------|--------------------||
|-------------------|--------------------||
|-------------------|--------------------||
|-------------------|--------------------||
|--3--3-3-3-3-5-3-2-|--2--2-2-2-2---2-5--||
|-------------------|-------------3---3--||
|
|               PM
| +Q    E E E E E E   +H        E E E E
|-------------------|--------------------||
|-------------------|--------------------||
|-------5-5-5-5-----|--------------------||
|-------5-5-5-5-----|--------------------||
|-(3)-----------3-2-|-(2)-------2---2-5--||
|-------------------|-------------3---3--||


   Outro
        A5                       Bb5         G5A5                         G5
             PM|       PM|     PM  PM             PM|       PM|     PM  PM
    +E  E Q  E E E E   E E E E E E E E   +E  E Q  E E E E   E E E E E E E E   3x
||-------------------|-----------------|------------------|-------------------||
||o------------------|-----------------|------------------|------------------o||
||-------------------|-----------------|------------------|-------------------||
||-------------------|-----------------|------------------|-------------------||
||o-(5)-7-7------7-7-|-----7-7---8---8-|-(8)-5-7------7-7-|-----7-7---7---5--o||
||--(3)-5-5--5-5-5-5-|-5-5-5-5-5-6-0-6-|-(6)-3-5--5-5-5-5-|-5-5-5-5-5-5-0-3---||


      A5                       Bb5
           PM|       PM|     PM  PM
  +E  E Q  E E E E   E E E E E E E E
|------------------|-----------------|
|------------------|-----------------|
|------------------|-----------------|
|------------------|-----------------|
|-(5)-7-7------7-7-|-----7-7---8---8-|
|-(3)-5-5--5-5-5-5-|-5-5-5-5-5-6-0-6-|


      G5A5                         G5      A5
           PM|       PM|
  +E  E Q  E E E E   E E E E E E E E   +E  E Q  +H
|------------------|-----------------|------------------*|
|------------------|-----------------|------------------*|
|------------------|-----------------|------------------*|
|------------------|-----------------|------------------*|
|-(8)-5-7------7-7-|-----7-7-7-7---5-|-(5)-7-7--(7)\----*|
|-(6)-3-5--5-5-5-5-|-5-5-5-5-5-5-0-3-|-(3)-5-5--(5)\----*|



Duration Legend
---------------
W - whole; H - half; Q - quarter; E - 8th; S - 16th; T - 32nd; X - 64th; a - acciaccatura
+ - note tied to previous; . - note dotted; .. - note double dotted
Uncapitalized letters represent notes that are staccato (1/2 duration)
Irregular groupings are notated above the duration line
Duration letters will always appear directly above the note/fret number it represents the
duration for.  Duration letters with no fret number below them represent rests.  Multi-
bar rests are notated in the form Wxn, where n is the number of bars to rest for.  Low
melody durations appear below the staff

Tablature Legend
----------------
 h   - hammer-on
 p   - pull-off
 b   - bend
 pb  - pre-bend
 r   - bend release (if no number after the r, then release immediately)
 /\  - slide into or out of (from/to "nowhere")
 s   - legato slide
 S   - shift slide
 - natural harmonic
[n]  - artificial harmonic
n(n) - tapped harmonic
 ~   - vibrato
 tr  - trill
 T   - tap
 TP  - trem. picking
 PM  - palm muting
\n/  - tremolo bar dip; n = amount to dip
 \n  - tremolo bar down
 n/  - tremolo bar up
/n\  - tremolo bar inverted dip
 =   - hold bend; also acts as connecting device for hammers/pulls
 <> - volume swell (louder/softer)
 x   - on rhythm slash represents muted slash
 o   - on rhythm slash represents single note slash

Misc Legend
-----------
 |  - bar
||  - double bar
||o - repeat start
o|| - repeat end
*|  - double bar (ending)
 :  - bar (freetime)
 $  - Segno
 &  - Coda
Tempo markers -  = BPM(8/16=s8/s16), where s8 = swing 8ths, s16 = swing 16ths


            
            
Suggest correction
Creating personal tab
Creating personal tab
You can edit any tab online and save it as your Personal.

You can edit, replace or remove any tab part or add personal notes – all changes will be seen only by you.

Personal tabs can be accessed anytime from any device, even offline.
Learn more »
Give kudos to tab author, rate the tab!
1 2 3 4 5
comments
print report bad tab
guest
You may want to rate the tab now too:
select rating
Wanna post a correction for this tab? Suggest correction