Oops, an error
Loading. Please wait.

Indian Girl bass

34 views 1 this week
no commentswrite comment
1 2 3 4 5
3 more votes to show rating
add to favorites
×
Save as Personal and add changes to this tab that will be seen only by you. Learn more ›
×
You can save this tab as Personal to edit and correct it or add notes. All changes will be seen only by you. Learn more »
launch autoscroll
font size
0
reset
guitar tuner
edit
Autoscroll
slow
fast
+/-
esc
set tempo
stop
Author
Difficulty
Tabbed by: 6METAL6BASSIST6
E-mail: petergriffinav@gmail.com

Tuning: EADG

0:24

G|------------|
D|------------|
A|7-\---------|
E|------------|

G|----------------------------------------------------------------|
D|----------------------------------------------------------------|
A|----------------------------0---2-----------2---------------2-4-|
E|2-----------2---------------------------------------------------|

G|----------------------------------------------------------------|
D|----------------------------------------------------4-----------|
A|----------------------------0---2-----------2---------------2---|
E|2-----------2---------------------------------------------------|

G|----------------------------------------------------------------|
D|----------------------------------------------------------------|
A|----------------------------0---2-----------2---------------2---|
E|2-----------2---------------------------------------------------|

G|----------------------------------------------------------------|
D|2-----------2-------------------2-----------2-------------------|
A|----------------------------2-----------------------2-----------|
E|--------------------------------------------------------0---1---|

0:42

G|----------------------------------------------------------------|
D|----------------------------------------------------------------|
A|------------------------0---1---2-----------2---2---------------|
E|2-----------2-----------------------------------------------0---|

G|----------------------------------------------------------------|
D|----------------------------------------------------------------|
A|------------------------0---1---2-----------2-------4-------2-2-|
E|2-----------2---------------------------------------------------|

G|----------------------------------------------------------------|
D|----------------------------------------------------------------|
A|------------------------0---1---2-----------2---------------2---|
E|2-----------2---2-----------------------------------------------|

G|----------------------------------------------------------------|
D|2-----------2-------------------2-----------2-------------------|
A|----------------------------2-----------------------2-------4---|
E|----------------------------------------------------------------|

0:59

G|----------------------------------------------------------------|
D|2-------------------2-------5---6-------------------6---\-------|
A|----------------2---------------------------6---------------3---|
E|----------------------------------------------------------------|

G|----------------------------------------------------------------|
D|----------------------------------------------------------------|
A|4-----------4-------4-------4---0---0-------0-------0-------0---|
E|----------------4-----------------------------------------------|

G|----------------------------------------------------------------|
D|----------------------------------------------------------------|
A|0-----------0---0---0-------1---2-----------2---2---2-------2---|
E|----------------------------------------------------------------|

G|----------------------------------------------------------------|
D|----------------------------------------------------------------|
A|----------------2---2-------2-------------------2---2-------2---|
E|0---0-------0-------------------0-----------0-------------------|

1:16

G|----------------------------------------------------------------|
D|2-----------2---2---2-----4-5---6-----------6-------6---\-------|
A|------------------------------------------------------------3---|
E|----------------------------------------------------------------|

G|----------------------------------------------------------------|
D|----------------------------------------------------------------|
A|4-----------4-------4-------4---0-----------0-------0-------0---|
E|----------------4-----------------------------------------------|

G|----------------------------------------------------------------|
D|----------------------------------------------------------------|
A|0-----------0---0---0-------1---2-----------2-----------2-------|
E|----------------------------------------------------2-----------|

G|----------------------------------------------------------------|
D|--------------------------------2-----------------------2---3---|
A|----------------2---2-------2---------------2-------4-----------|
E|0---0-------0---------------------------------------------------|

1:33

G|----------------------------------------------------------------|
D|4-----------4---------------------------------------------------|
A|------------------------0---1---2-----------2---2-----------4---|
E|----------------------------------------------------------------|

G|----------------------------------------------------------------|
D|----------------------------------------------------------------|
A|------------------------0---1---2-----------2-------2---3---4---|
E|2-----------2---------------------------------------------------|

G|----------------------------------------------------------------|
D|----------------4-----------------------------------------------|
A|----------------------------0---2-----------2-----------2-------|
E|2-----------2---------------------------------------2-----------|

G|----------------------------------------------------------------|
D|2-----------2---2---------------2-----------------------2---3---|
A|----------------------------2---------------2-------4-----------|
E|----------------------------------------------------------------|

1:50

G|----------------------------------------------------------------|
D|4-----------4---------------------------------------------------|
A|------------------------0---1---2-----------2---2-----------4---|
E|----------------------------------------------------------------|

G|----------------------------------------------------------------|
D|----------------------------------------------------------------|
A|------------------------0---1---2-----------2-------2---3---4---|
E|2-----------2---2-----------------------------------------------|

G|----------------------------------------------------------------|
D|----------------------------------------------------------------|
A|----------------------------0---2-----------2-----------4---2---|
E|2-----------2---2-----------------------------------------------|

G|----------------------------------------------------------------|
D|2-----------2---2---------------2---2-------2-------2-------2---|
A|----------------------------2---------------------------2-------|
E|----------------------------------------------------------------|

2:06

G|----------------------------------------------------------------|
D|------------2-------2-----/-5---6-----------6-------6---\-------|
A|----------------2-------------------------------6-----------3---|
E|----------------------------------------------------------------|

G|----------------------------------------------------------------|
D|----------------------------------------------------------------|
A|4-----------4-------4-------2---0-----------0---0---0-------0---|
E|----------------4-----------------------------------------------|

G|----------------------------------------------------------------|
D|----------------------------------------------------------------|
A|0-----------0-------0-------1---2---------------2---2-------2---|
E|--------------------------------------------2-------------------|

G|----------------------------------------------------------------|
D|2-----------2---2---2-----------2---2-----------2---------------|
A|----------------------------------------------------------------|
E|----------------------------------------------------------------|

2:24

G|----------------------------------------------------------------|
D|2-----------2---2---2-----/-5---6-----------6-------------------|
A|----------------------------------------------------6---\---3---|
E|----------------------------------------------------------------|

G|----------------------------------------------------------------|
D|----------------------------------------------------------------|
A|4-----------4---4---4---\---2---0-----------0-------0-------0---|
E|----------------------------------------------------------------|

G|----------------------------------------------------------------|
D|----------------------------------------------------------------|
A|0-----------0---0---0-------1---2-----------2-----------2-------|
E|----------------------------------------------------2-----------|

G|----------------------------------------------------------------|
D|--------------------------------2-----------------------2---3---|
A|----------------2---2-----------------------2-------4-----------|
E|0-----------0---------------------------------------------------|

2:40

G|----------------------------------------------------------------|
D|4-----------4-------2-------------------------------------------|
A|----------------------------0---2-----------2-------2---3---4---|
E|----------------------------------------------------------------|

G|----------------------------------------------------------------|
D|----------------------------------------------------------------|
A|----------------------------0---2-----------2-------2---3---4---|
E|2-----------2---2-----------------------------------------------|

G|----------------------------------------------------------------|
D|----------------------------------------------------4-----------|
A|----------------------------0---2-----------2---------------2---|
E|2-----------2---2---2-------------------------------------------|

G|----------------------------------------------------------------|
D|2-----------2---2-----------2---2-----------2-------2---2---3---|
A|----------------------------------------------------------------|
E|----------------------------------------------------------------|

2:56

G|----------------------------------------------------------------|
D|4-----------4-----------------------------------------------1-/-|
A|--------------------4-------0---2-----------2-------2-----------|
E|----------------------------------------------------------------|

G|----------------------------------------------------------------|
D|4-----------4---4-----------------------------------------------|
A|----------------------------0-------2-------2-------2-------2---|
E|----------------------------------------------------------------|

G|----------------------------------------------------------------|
D|4-----------4-------4-------------------------------4-----------|
A|----------------------------0---2-----------2---------------2-/-|
E|----------------------------------------------------------------|

G|--------------------------------------------------------------------|
D|--------------------------------------------9---\---6-------5---4---| fades out here.
A|7-----------7---------------7-------7-------------------------------|
E|--------------------------------------------------------------------|

            
            
Suggest correction
Creating personal tab
Creating personal tab
You can edit any tab online and save it as your Personal.

You can edit, replace or remove any tab part or add personal notes – all changes will be seen only by you.

Personal tabs can be accessed anytime from any device, even offline.
Learn more »
Give kudos to tab author, rate the tab!
1 2 3 4 5
comments
print report bad tab
guest
You may want to rate the tab now too:
select rating
Wanna post a correction for this tab? Suggest correction