Oops, an error
Loading. Please wait.

Together bass

10 views 1 this week
no commentswrite comment
1 2 3 4 5
3 more votes to show rating
add to favorites
×
Save as Personal and add changes to this tab that will be seen only by you. Learn more ›
×
You can save this tab as Personal to edit and correct it or add notes. All changes will be seen only by you. Learn more »
launch autoscroll
font size
0
reset
guitar tuner
edit
Autoscroll
slow
fast
+/-
esc
set tempo
stop
Author
Difficulty
Tabbed by: 6METAL6BASSIST6
E-mail: petergriffinav@gmail.com

Tuning: EADG

G|------------------------------------------5-----------------------------------------------------|
D|----------------------------------------------5-------------------------------------------------|
A|------------------------------------------------3-----3-----3-----3-----3-----3-----3-----3-----|
E|------------------------------------------------------------------------------------------------|

0:10

G|------------------------------------------------------------------------------------------------|
D|------------------------5-----------5---------5-------------------------------------------------|
A|3-----------3-----------------------------------3-----2-----1---------1-0---------0-0-----------|
E|----------3-----------3-----------3-------------------------------------------------------------|

G|------------------------------------------------------------------------------------------------|
D|------------------------------------------------------------------------5-----------------------|
A|------------------------------------------------------------------------------------------------|
E|4---------4-4---------4-3---------3-3---------3-4---------4-4---------3-------3-----------------|

G|------------------------------------------------------------------------------------------------|
D|------------------------3-----3-----3-----3-----------------------------3-----3-----3-----3-----|
A|3-----3-----3-----3-----------------------------3-----3-----3-----3-----------------------------|
E|------------------------------------------------------------------------------------------------|

0:37

G|------------------------------------------------------------------------------------------------|
D|------------------------5-----------5-----------------------------------------------------------|
A|3-----------3-----------------------------------3-----2-----1---------1-0---------0-0-----------|
E|----------3-----------3-----------3-----------3-------------------------------------------------|

G|------------------------------------------------------------------------------------------------|
D|------------------------------------------------------------------------5-----------------------|
A|------------------------------------------------------------------------------------------------|
E|4---------4-4---------4-3---------3-3---------3-4---------4-4---------3-------3-----------------|

G|------------------------------------------------|
D|------------------------------------------------|
A|3-----3-----3-----3-----5-----5-----5-----5-----|
E|----------------------------------------5-------|

1:00

G|------------------------------6-\---------4-----------------------------------------------------|
D|2---------2-------------------------------------------7-----------6-\---------4-----------4-----|
A|------------2---------2-4-----------2---------------------------------2-----------2-----2-----2-|
E|------------------------------------------------5-----------4-----------------------------------|

G|------------------------------------------------------------------------------------------------|
D|2-----2-----1-----1---------------------------------------------------------------4-------------|
A|------------------------4-----4-----4-----4-----3-----3-----3-----3---2-------------2-----2-----|
E|----------------------------------4-----------------------------3-------------------------------|

1:18

G|------------------------------------------------------------------------------------------------|
D|------------------------------------------------------------------------------------------------|
A|3-----3-----3-----3-----5-----5-----5-----5-----------------------------------------------------|
E|------------------------------------------------0-----------------------0-----------------------|

G|------------------------------------------------------------------------|
D|------------------------------------------------------------2-----------|
A|------------------------------------------------------------------5-----|
E|------------------------------------------------------------------------|

G|------------------------------------------------------------------------------------------------|
D|------------------------------------------------------------------------------------------------|
A|4-----4-----4-----4-----4-----4-----4-----4-----4-----4-----4-----4-----4-----4-----4-----4-----|
E|----------------------------------------------4-----------------------------------------------4-|

1:43

G|------------------------------------------------------------------------------------------------|
D|------------------------------------------------------------------------------------------------|
A|4---------4-4---------4-------------------------4-----3-----2-----------1---------1-1---------1-|
E|------------------------4---------4-4---------4-------------------------------------------------|

G|------------------------------------------------------------------------------------------------|
D|------------------------------------------------------------------------6-----------------------|
A|0---------0-0-----------------------------------------------------------------------------------|
E|------------------------4---------4-4---------4-5---------5-5---------4-------4-----------------|

G|------------------------------------------------|
D|------------------------------------------------|
A|4-----4-----4-----4-----6-----6-----6-----6-----|
E|----------------4-------------------------------|

2:04

G|------------------------------7-\---------5-----------3-----------------------------------------|
D|3---------3-------------------------------------------------------7-\---------5-----------5-----|
A|------------3---------3/5-----------3-----------1-----------0---------3-----------3-----3-----3-|
E|------------------------------------------------------------------------------------------------|

G|------------------------------------------------------------------------------------------------|
D|3-----3-----2-----2-----------------------------------------------------------------------------|
A|------------------------5-----5-----5-----5-----4-----4-----3---1-----------0-1---3-------3-----|
E|----------------------------------5-------------------------------4---3-----------------3-----4-|

G|------------------------------------------------------------------------------------------------|
D|------------------------------------------------------------------------------------------------|
A|4-----4-----3---1-----------0-1---3-------3-----4-----4-----4-----4---/-6-----6-----6-----6-\---|
E|------------------4---3-----------------3-------------------------------------------------------|

2:30

G|------------------------------------------------------------------------------------------------|
D|------3-----------3-----------3-----------3-----------3-----------3-----------3-----------3-----|
A|----------------------------------------------------------------3-------------------------------|
E|1-----------1-----------1-----------1-----------1-----------1-----------1-----------1-----------|

G|------------------------------------------------------------------------------------------------|
D|------------------------------------------------------------------------------------3---3-3-3-3-|
A|------------------------------------------------------------------------------------------------|
E|----1-----1-1---1-----1-1---1-----1-1---1-----1-1---1-----1-----1-----1-----1-----1-------------|

2:48

G|------------------------------------------------------------------------------------------------|
D|------------------------------------------------------------------------------------3---3-3-3---|
A|------------------------------------------------------------------------------------------------|
E|----1-----1-----1-----1-1---1-----1-1---1-----1-1---------1-1---1-----1-1---1-----1-------------|

G|------------------------------------------------------------------------------------------------|
D|3-----------3-----------3-----------3-----------3-----------3-----------3-----------3---3---3---|
A|------------------------------------------------------------------------------------------------|
E|----1-----1-----1-----1-----1-----1-----1-----1-----1-----1-----1-----1-----1-----1-------------|

G|------------------------------------------------------------------------------------------------|
D|------------------------------------------------------------------------------------------------| fades out
A|------------------------------------------------------------------------------------------------|   here.
E|1---1-----1-----1-----1-1---1-----1-----1-----1-1---1-----1-1---1-----1-1---1-----1-----1-----1-|

            
            
Suggest correction
Creating personal tab
Creating personal tab
You can edit any tab online and save it as your Personal.

You can edit, replace or remove any tab part or add personal notes – all changes will be seen only by you.

Personal tabs can be accessed anytime from any device, even offline.
Learn more »
Give kudos to tab author, rate the tab!
1 2 3 4 5
comments
print report bad tab
guest
You may want to rate the tab now too:
select rating
Wanna post a correction for this tab? Suggest correction