Oops, an error
Loading. Please wait.

Scrimshaw Carver chords

73 views 1 this week
no commentswrite comment
1 2 3 4 5
3 more votes to show rating
add to favorites
×
Save as Personal and add changes to this tab that will be seen only by you. Learn more ›
×
You can save this tab as Personal to edit and correct it or add notes. All changes will be seen only by you. Learn more »
launch autoscroll
font size
0
reset
transpose
0
reset
display chords
guitar tuner
edit
Autoscroll
slow
fast
+/-
esc
set tempo
stop
Author
Strumming
There is no strumming pattern for this song yet. and get +5 IQ
[Intro]

e|-7---5---p3---------------------------------------------------------------|
B|--------------------3-h5-3------3--p1-----------------1--h3--1------------|
G|---------------4-h5-------------------3---2-----2--h3-----------3--p2--0--|
D|---0-------0---------------5----------------3-----------------------------|
A|--------------------------------------------------------------------------|
E|--------------------------------------------------------------------------|
   Landlubbers have awoken me     releasing of me spirit from the bottom of the sea where me bones

e|-7----5--3-----------------------------------------3---3--|
B|------------3--------3--5---3----1--3--1---------------0--|
G|---------------4--5----------------------3-h2-----0----0--|   x2
D|-0----------------------------5----------------3----------|
A|----------------------------------------------------------|
E|----------------------------------------------------------|
  have laid since 1883 i'm the ghost of the scrimshaw carver


[Bridge]

G


[Verse]

Em   G     Em  D           C
As a cabin boy aboard the "Ocean Spray"

Em     G            C         D
out of Liverpool we sailed to Baffin Bay

C                 C#M7sus4   Em                D
'cross the Greenland Sea for to hunt the mighty whale


[Chorus]

e|-7---5---p3---------------------------------------------------------------|
B|--------------------3-h5-3------3--p1-----------------1--h3--1------------|
G|---------------4-h5-------------------3---2-----2--h3-----------3--p2--0--|
D|---0-------0---------------5----------------3-----------------------------|
A|--------------------------------------------------------------------------|
E|--------------------------------------------------------------------------|
  "Hold steady there the beauty blows, bring her 'round to starboard and steady as she goes"

e|-7----5--3-----------------------------------------3---3--|
B|------------3--------3--5---3----1--3--1---------------0--|         x2
G|---------------4--5----------------------3-h2-----0----0--|
D|-0----------------------------5----------------3----------|
A|----------------------------------------------------------|
E|----------------------------------------------------------|
   and me old "Sea Daddy" taught' me all he knows. I'm the Ghost of the Scrimshaw Carver


[Bridge]

G


[Verse]

Em    G         Em     D                    C
"Over there she blows" I heard the look-out say

Em                 G         C           D
"Off the starboard bow not a half a mile away"

C                  C#M7sus4    Em                D
and the sea turned red as we took his life that day


[Chorus]

e|-7---5---p3---------------------------------------------------------------|
B|--------------------3-h5-3------3--p1-----------------1--h3--1------------|
G|---------------4-h5-------------------3---2-----2--h3-----------3--p2--0--|
D|---0-------0---------------5----------------3-----------------------------|
A|--------------------------------------------------------------------------|
E|--------------------------------------------------------------------------|
  With whale blubber a needle and a stone I carved a pretty picture on a piece of whalebone
e|-7----5--3-----------------------------------------3---3--|
B|------------3--------3--5---3----1--3--1---------------0--|           x2
G|---------------4--5----------------------3-h2-----0----0--|
D|-0----------------------------5----------------3----------|
A|----------------------------------------------------------|
E|----------------------------------------------------------|
   for to make some pennies for 'me family back at home I'm the Ghost of the Scrimshaw Carver


[Bridge]

G  Em  C  Em


[Verse]

Em  G       Em
The harpoon missed it's mark

D             C
a great whale stood his ground

Em         G      C                      D
making his escape he dived and pulled us down

C    C#M7sus4           Em                D
all hands on board were lost and never found.



************************************

| h  Hammer-on
| p  Pull-off 

************************************

            
            
Suggest correction
Creating personal tab
Creating personal tab
You can edit any tab online and save it as your Personal.

You can edit, replace or remove any tab part or add personal notes – all changes will be seen only by you.

Personal tabs can be accessed anytime from any device, even offline.
Learn more »
Give kudos to tab author, rate the tab!
1 2 3 4 5
comments
print report bad tab
guest
You may want to rate the tab now too:
select rating
Wanna post a correction for this tab? Suggest correction