Oops, an error
Loading. Please wait.

In Ear Park tab

version 2
version 2

Whole song

7,405 views 12 this week
no commentswrite comment
1 2 3 4 5
x 3
add to favorites
×
Save as Personal and add changes to this tab that will be seen only by you. Learn more ›
×
You can save this tab as Personal to edit and correct it or add notes. All changes will be seen only by you. Learn more »
launch autoscroll
font size
0
reset
how to read this tab
guitar tuner
edit
Autoscroll
slow
fast
+/-
esc
set tempo
stop
======================================================================
IN EAR PARK - DEPARTMENT OF EAGLES
======================================================================

Tabbed by Ben Chen
August 12, 2009

Well, my Daniel Rossen obsession continues. This one's mostly based on
the Pitchfork video but the DUMBO session is also a great one. The
strumming here is abbreviated but it's all pretty similar once you get
the shuffle down. Also, this is definitely a 2-guitar song, but I
haven't tried to tab out the part Fred Nicolaus plays yet.


Drop D tuning (DADGBe), capo on 2nd fret (live versions).



========== INTRO =====================================================

e|---------5-----------7-----------9-------/12--7---------------------|
B|---------3-----------5-----------7--------10--5---------------------|
G|---------5-----------7-----------7--------9---7---------------------|
D|---------4-----------6-----------7--------11--6---------------------|
A|---------0-----------0-----------0--------9---0---------------------|
D|---------0-----------0-----------0--------0---0---------------------|

(repeat)
======================================================================


e|---5--5---5----------------------3--3-3--3---3----------------------|
B|---5--5---5----------------------3--5-3--3---3----------------------|
G|---5--5---5----------------------3--3-3--3---3----------------------|
D|---5--5---5----------------------3--3-3--3---3----------------------|
A|---7--5h7-7----------------------5--5-5--3h5-3----------------------|
D|---5--5---5----------------------3--3-3--3---3----------------------|

               All  of   us        walk  a    long, steady
           And now  that you're    gone, I've nothing   but
            To walk with your      bags       down  to  the
           And sit  in   the       grass      right in  your

e|---------5---5---5---5---5-------5---5---5---5---5----5-5-5-5-------|
B|---------0---0---0---0---0-------0---0---0---0---0----3-3-3-3-------|
G|---------5---5---5---5---5-------5---5---5---5---5----5-5-5-5-------|
D|-------0---0-------0-----------0---0-------0----------4-4-4-4-------|
A|---------------3-------0---------------3--------------0-0-0-0-------|
E|---3-----------------------3-------------------3---0----------------|

     line.
     time.
     docks.
     spot.                               In ear              park.
                             In          ear         park.

======================================================================

e|---2------2-2-2-2----------------------------2-2--------------------|
B|---5------5-5-5-5--------------------------3-3-3--------------------|
G|---4------4-2-4-2-----------2-2-2-2-2-2----2-2-2--------------------|
D|---2---------------------------0-----0-----4---4--------------------|
A|---3-------------------------3-----3--------------------------------|
D|---2-----------------------3-----3------4---------------------------|

                And if you'd listen

e|-----------0-0-0-0----0--0-0------------x---x---x----10--10-10------|
B|-----------5-5-5-5----5--5-5------------x---x---x----9---9--9-------|
G|-----------3-3-3-3----4--4-4------------x---x---x----7---7--7-------|
D|-----------4-4-4-4----5--5-5------------x---x---x----0---0--0-------|
A|----------------------------------------x-7---5---------------------|
D|--------4----------5------------------5-----------8-----------------|

    You'd hear     the
                     waves.                                     Ohhh Oh

e|---7-----7--7--7--7--------5----------------------------------------|
B|---10----10-10-10-10-------7----------------------------------------|
G|---9-----9--7--9--7--------7----------------------------------------|
D|---7-----------------------0----------------------------------------|
A|---8-----------------------0----------------------------------------|
D|---7-----------------------0----------------------------------------|
                                  (insert favorite E major chords)
                    Oh       Oh

e|-----------0-0-0-0----0--0-0-------------x---x---x----10--10-10-----|
B|-----------5-5-5-5----5--5-5-------------x---x---x----9---9--9------|
G|-----------3-3-3-3----4--4-4-------------x---x---x----7---7--7------|
D|-----------4-4-4-4----5--5-5-------------x---x---x----0---0--0------|
A|-----------------------------------------x-7---5--------------------|
D|--------4----------5-------------------5-----------8----------------|

   But we all    for
                   got     dear                                 Ohhh Oh

e|---------------------------5----------------------------------------|
B|---------------------------7----------------------------------------|
G|---------------------------7----------------------------------------|
D|---------------------------0----------------------------------------|
A|---------------------------0----------------------------------------|
D|---------------------------0----------------------------------------|
                                  (insert favorite E major chords)
                             Oh

e|-----------0-0-0-0----0--0-0-------------x---x---x----10--10-10-----|
B|-----------5-5-5-5----5--5-5-------------x---x---x----9---9--9------|
G|-----------3-3-3-3----4--4-4-------------x---x---x----7---7--7------|
D|-----------4-4-4-4----5--5-5-------------x---x---x----0---0--0------|
A|-----------------------------------------x-7---5--------------------|
D|--------4----------5-------------------5-----------8----------------|

   But we can't  for
                   get     dear                                 Ohhh oh

e|---7-----7--7--7--7-------------------------------------------------|
B|---10----10-10-10-10------------------------------------------------|
G|---9-----9--7--9--7-------------------------------------------------|
D|---7----------------------------------------------------------------|
A|---8----------------------------------------------------------------|
D|---7----------------------------------------------------------------|

                    Oh       


========== OUTRO =====================================================

e|---------5-----------7-----------9-------/12--7-------------5-------|
B|---------3-----------5-----------7--------10--5-------------7-------|
G|---------5-----------7-----------7--------9---7-------------7-------|
D|---------4-----------6-----------7--------11--6-------------6-------|
A|---------0-----------0-----------0--------9---0-------------0-------|
D|---------0-----------0-----------0--------0---0-------------0-------|

   All the time
               All the time
                           All the time
                                        All the time

======================================================================

| /  slide up
| \  slide down
| h  hammer-on
| p  pull-off
| ~  vibrato
| +  harmonic
| x  Mute note

            
            
Suggest correction
Creating personal tab
Creating personal tab
You can edit any tab online and save it as your Personal.

You can edit, replace or remove any tab part or add personal notes – all changes will be seen only by you.

Personal tabs can be accessed anytime from any device, even offline.
Learn more »
Give kudos to tab author, rate the tab!
1 2 3 4 5
comments
print report bad tab
guest
You may want to rate the tab now too:
select rating
Wanna post a correction for this tab? Suggest correction