Oops, an error
Loading. Please wait.

Layla tab

version 4
version 4

Whole song

Interactive

520 views 1 this week
no commentswrite comment
1 2 3 4 5
2 more votes to show rating
add to favorites
×
Save as Personal and add changes to this tab that will be seen only by you. Learn more ›
×
You can save this tab as Personal to edit and correct it or add notes. All changes will be seen only by you. Learn more »
launch autoscroll
font size
0
reset
how to read this tab
guitar tuner
backing track
0:00
0:00
edit
Autoscroll
slow
fast
+/-
esc
set tempo
stop
-------------
S Slide     |
H hammer-on |
P Pull-of   |
V vibrato   |
-------------
Tuning: Half step up or capo on 1st fret. (F,C,G#,D#,A#,F,High to low)
Guitar 1: Overdrive and reverb
Guitar 2: Slight bit less overdrive and reverb

Intro to intro

Guitar 1
e--------------|
B--------------|
G--------------|
D--------------|
A----5h8-5-5vvv|hold note
E-5h8-----8----|
Guitar 2
e-------------------|
B-------------------|
G-------------------|
D-7-5-3-----5---5-7-|
A-5-3-1-0-5-3-0-3-5-|
E---------3---------|

Guitar 1
e--------------|
B--------------|
G--------------|
D--------------|
A----5h8-5-5vvv| hold note
E-5h8-----8----|
Guitar 2
e-------------------|
B-------------------|
G-------------------|
D-7-5-3-----5---5-7-|
A-5-3-1-0-5-3-0-3-5-|
E---------3---------|

Intro to verse

e------10h13p10--10-13s15-13-12--10-|
B-10h13--------13--------------13---|
G-----------------------------------|
D-----------------------------------|
A-----------------------------------|
E-----------------------------------|

Guitar 2 in unison with guitar 1
e-----------------|
B-----------------|
G-----7h10p7--7vvv|
D-7h10------10----|
A-----------------|
E-----------------|

e------10h13p10--10-15s17-15-12--10-|
B-10h13--------13--------------13---|
G-----------------------------------|
D-----------------------------------|
A-----------------------------------|
E-----------------------------------|
Guitar 2 in unison 
e-----------------|
B-----------------|
G-----7h10p7--7vvv|
D-7h10------10----|
A-----------------|
E-----------------|

e------10h13p10--10-13s15-13-12--10-|
B-10h13--------13--------------13---|
G-----------------------------------|
D-----------------------------------|
A-----------------------------------|
E-----------------------------------|

e-----------------|
B-----------------|
G-----7h10p7--7vvv|
D-7h10------10----|
A-----------------|
E-----------------|

e------10h13p10--10-15s17-15-12----|
B-10h13--------13--------------13b-|
G----------------------------------|
D----------------------------------|
A----------------------------------|
E----------------------------------|
Guitar 2 
e-----------------|
B-----------------|
G-----7h10p7--7vvv|
D-7h10------10----|
A-----------------|
E-----------------|

[Verse 1]

C#m                            G#7                           
What'll you do when you get lonely
C#m           C       D       E    E7
And nobody's waiting by your side?
F#m           B           E               A 
You've been running and hiding much too long
F#m             B                 E
You know it's just your foolish pride

[Chorus]

A   Dm  Bb     C            Dm
Layla, you've got me on my knees

e------10h13p10--10-13s15-13-12--10-|
B-10h13--------13--------------13---|
G-----------------------------------|
D-----------------------------------|
A-----------------------------------|
E-----------------------------------|
A  Dm  Bb     C               Dm 
Layla, I'm begging, darling please

e------10h13p10--10-15s17-15-12--10-|
B-10h13--------13--------------13---|
G-----------------------------------|
D-----------------------------------|
A-----------------------------------|
E-----------------------------------|

A   Dm  Bb     C               Dm 
Layla, darling won't you ease my worried mind
Am   Dm  Bb     C    A

[Verse 2]

C#m                      G#7
  Tried to give you consolation,
C#m            C         D       E    E7
  And your old man won't let you down
F#m      B       E                 A
  Like a fool, I fell in love with you,
F#m          B                  E
  Turned the whole world upside down

[Chorus]
A Dm Bb C                     Dm
Layla, you've got me on my knees 

e------10h13p10--10-13s15-13-12--10-|
B-10h13--------13--------------13---|
G-----------------------------------|
D-----------------------------------|
A-----------------------------------|
E-----------------------------------|
A Dm Bb C   
Layla, I'm begging, darling please

e------10h13p10--10-15s17-15-12--10-|
B-10h13--------13--------------13---|
G-----------------------------------|
D-----------------------------------|
A-----------------------------------|
E-----------------------------------|
A      D     Bb             C
Layla, darling won't you ease my worried mind

[Verse 3]

C#m                            G#7  
Let's make the best of the situation
C#m         C   D  E   E7
Before I finally go insane
F
Please don't say I'll never find a way

And tell me all my love's in vain

[Chorus]

A Dm C                         Dm
Layla, you've got me on my knees

e------10h13p10--10-13s15-13-12--10-|
B-10h13--------13--------------13---|
G-----------------------------------|
D-----------------------------------|
A-----------------------------------|
E-----------------------------------|

A  Dm   C 
Layla, I'm begging, darling please

e------10h13p10--10-15s17-15-12--10-|
B-10h13--------13--------------13---|
G-----------------------------------|
D-----------------------------------|
A-----------------------------------|
E-----------------------------------|

A               Dm                  C
Layla, darling won't you ease my worried mind

e------10h13p10--10-13s15-13-12--10-|
B-10h13--------13--------------13---|
G-----------------------------------|
D-----------------------------------|
A-----------------------------------|
E-----------------------------------|

A           Dm                       C
Layla (Layla) you've got me on my knees

e------10h13p10--10-15s17-15-12--10-|
B-10h13--------13--------------13---|
G-----------------------------------|
D-----------------------------------|
A-----------------------------------|
E-----------------------------------|

A        Dm               C
Layla, I'm begging, darling please

e------10h13p10--10-15s17-15-12--10-|
B-10h13--------13--------------13---|
G-----------------------------------|
D-----------------------------------|
A-----------------------------------|
E-----------------------------------|

A         Dm               C 
Layla, darling won't you ease my worried mind
N.C.
After this you repeat the first riff 11 times over a improvised slide solo above the fretboard and then the 
main riff and then once the piano kicks in you use the slide to go above the fretboard.

            
            
Suggest correction
Creating personal tab
Creating personal tab
You can edit any tab online and save it as your Personal.

You can edit, replace or remove any tab part or add personal notes – all changes will be seen only by you.

Personal tabs can be accessed anytime from any device, even offline.
Learn more »
Give kudos to tab author, rate the tab!
1 2 3 4 5
comments
print report bad tab
guest
You may want to rate the tab now too:
select rating
Wanna post a correction for this tab? Suggest correction