Oops, an error
Loading. Please wait.

Catalina bass

version 1
version 1

Whole song

Interactive

2,711 views 3 this week
3 commentsread comments
1 2 3 4 5
1 last vote to show rating
add to favorites
×
Save as Personal and add changes to this tab that will be seen only by you. Learn more ›
×
You can save this tab as Personal to edit and correct it or add notes. All changes will be seen only by you. Learn more »
launch autoscroll
font size
0
reset
guitar tuner
edit
Autoscroll
slow
fast
+/-
esc
set tempo
stop
Author
Difficulty
Catalina By Descendents

I think figuring this one out was just an accident
ah well heres the tab

Intro:
G------------------------------------|
D------------------------------------|
A------------------------------------|
E-88888888888888888888888888888888888 X a lot

Build-Up To Verse

G------------------------------------|
D------------------------------------|
A----5--4----------------------------|
E--4---------------------------------|

Verse:
G-----------------------------|
D-----------------------------|
A----66-77-44-55-3--2---44-3--|
E-88------------------3-------|

Chorus
G------------------------------|
D------------------------------|
A------------------------------|
E-66666---33333---55555--44444-|

Spoken Part Same As Verse

Ending

E-88888888---4

            
            
Suggest correction
Creating personal tab
Creating personal tab
You can edit any tab online and save it as your Personal.

You can edit, replace or remove any tab part or add personal notes – all changes will be seen only by you.

Personal tabs can be accessed anytime from any device, even offline.
Learn more »
Give kudos to tab author, rate the tab!
1 2 3 4 5
comments
print report bad tab
3 comments total.
0 reply
Mmollle 127 May 04, 2014 12:34 PM

The intro is cleary 7, not 8.

0 reply
misfitsdisciple 423 Sep 09, 2014 05:09 PM

Lack of accuracy. Clearly wrong. Tab is way off, just by listening to the song it's easy to see that the verse and chorus are not what's being played.

0 reply
ElvisGoesToUni 86 Nov 25, 2016 01:34 PM

This tab is completely incorrect unfortunately.

guest
You may want to rate the tab now too:
select rating
Wanna post a correction for this tab? Suggest correction