Oops, an error
Loading. Please wait.

Clean Sheets tab

version 1
version 1

Whole song

Interactive

15,504 views 24 this week
2 commentsread comments
1 2 3 4 5
x 9
add to favorites
×
Save as Personal and add changes to this tab that will be seen only by you. Learn more ›
×
You can save this tab as Personal to edit and correct it or add notes. All changes will be seen only by you. Learn more »
launch autoscroll
font size
0
reset
how to read this tab
guitar tuner
edit
Autoscroll
slow
fast
+/-
esc
set tempo
stop
Author
Unregistered
#----------------------------------PLEASE NOTE---------------------------------#
#This file is the author's own work and represents their interpretation of the #
#song. You may only use this file for private study, scholarship, or research. #
#------------------------------------------------------------------------------#
#

Date: Sat, 27 Sep 1997 11:29:42 -0500 (CDT)
From: skunx@ix.netcom.com (Donna DeCarolis)
Subject: "Clean Sheets" by Descendents

-----------------------------------------------------------------------------
                        CLEAN SHEETS- Descendents
-----------------------------------------------------------------------------

tabbed by: SkunX (skunx@ix.netcom.com)

thank you Pancreas@vt.edu for posting this solo that i put on this tab!!
also, please excuse any lyrical-type fuckups, but i dont have a lyric
sheet for this rhyme yo.


CHORDS

   Eii   D    G     C    B

|----------------------------|
|----------------------------|
|---9----7----------5----4---|
|---9----7----5-----5----4---|
|---7----5----5-----3----2---|
|-------------3--------------|


Intro: Eii, D (x4)
       G, D, Eii, C, B, C

Verse1:

G                       B            C
clean sheets mean a lot to a guy who sleeps on the floor
G                  B                   C
i wanted your love and a shelf on your dresser drawer
G                    B                     C
you tucked me in and stopped my tossin and turning
    G                              B                    C
but i turned back the covers and i saw those sheets are dirty

CHORUS:

Eii                D                    Eii      C
even though you'll never come clean you know its true
G                D         B      C
those sheets are dirty and so are you

Verse2:
the warmth of a bed to a guy who sleeps on the floor
was enough to perpetuate all the lies i heard before
now i wanna hold you gotta hold my pillow instead
cause my pillow will never lie or be with a stranger in my bed

CHORUS

Bridge:

B                     C                G
wheres the love i was looking for? its out the door
B                 C                  G
i'm afraid to see you anymore so its back on the floor
      B                C
cause those sheets are dirty

Eii, D (x3)

Solo:

e----------------------------------------------|
B-----------------------5p3p2h3--3p2p3---------|
G----------------4p2h4-------------------------|
D---------5p4h5--------------------------------|
A--7p5h7---------------------------------------|
E----------------------------------------------|

e--7r5-3----3-----3----------0--3--2-----0-----|
B--------7-----5------3~~~~~----------3------1-|
G----------------------------------------------|
D----------------------------------------------|
A----------------------------------------------|
E----------------------------------------------|

e-----------2-----3~~--3--2------3-2----7-5-3--|
B-0-0--3-3----3-0------------3-------3---------|
G----------------------------------------------|
D----------------------------------------------|
A----------------------------------------------|
E----------------------------------------------|

e---------------14---------15------------------|
B-12-12--15--15----15--12----------------------|
G----------------------------------------------|
D----------------------------------------------|
A----------------------------------------------|
E----------------------------------------------|

Verse3:
woke up this morning alone on the floor
thinking about those clean sheets and the way it was before
when i looked in the mirror i saw your face & thought of the past
now i know how dirty you are i took my fist and smashed the glass

CHORUS (x2)

            
            
Suggest correction
Creating personal tab
Creating personal tab
You can edit any tab online and save it as your Personal.

You can edit, replace or remove any tab part or add personal notes – all changes will be seen only by you.

Personal tabs can be accessed anytime from any device, even offline.
Learn more »
comments
print report bad tab
2 comments total.
0 reply
TheBigBobby 10 Aug 31, 2008 08:21 PM

Thank you for thanking me for the solo ;)

Man, it's so cool to find this stuff is still on the Internet. I went on a date with a girl yesterday, and she told me about getting tab from this site. Got me wondering if anything I posted to nevada.edu and rec.music.makers.guitar.tablature might be on here. Sure enough...

+2 reply
Ruenis 10 Nov 29, 2010 10:47 AM

theres a little bit that goes like
e-8-7------
B----8-----
G-----7----
D----------

or instead

e----------
B-13-12----
G------12--
D--------12

just sayin'...

guest
Wanna post a correction for this tab? Suggest correction