Oops, an error
Loading. Please wait.

Coolidge bass

version 2
version 2

Whole song

Interactive

2,138 views 1 this week
2 commentsread comments
1 2 3 4 5
2 more votes to show rating
add to favorites
×
Save as Personal and add changes to this tab that will be seen only by you. Learn more ›
×
You can save this tab as Personal to edit and correct it or add notes. All changes will be seen only by you. Learn more »
launch autoscroll
font size
0
reset
guitar tuner
edit
Autoscroll
slow
fast
+/-
esc
set tempo
stop
Author
Difficulty
-------------------------------------------------------------------------------
			                    COOLIDGE - Descendents
-------------------------------------------------------------------------------
Tabbed By : Mojsije
e-mail: nikolayugo@gmail.com

Intro
G|-----------|
D|---5-------|
A|-00-0h4h55-|
E|-----------|

Verse
G|-------------------------------------------------------|
D|-------------------------------------------------------|
A|-555555555555h7-2222222222222-023333333333333--22-33---|
E|---------------------------------------------33-----33-|

G|--------------------------------|
D|-----------------------55555-3--|
A|-5555555555555h7-333333-------5-|
E|--------------------------------|

Bridge
G|-----------------------------|
D|-----------------------------|
A|-2222222-----2222222-777777\-|
E|--------00000----------------|

Chorus
G|--------------------------------|--------------44444-2----------|
D|--------------------------------|-------4444444-------4-2222222-|
A|-333333-55555555-2222-023-333333|-333333------------------------|
E|--------------------------------|-------------------------------|

During and after the guitar solo
G|-----------|
D|---5-------|
A|-00-0h4h55-|
E|-----------|

When they're saying aaaa... and outro
G|-------------------|
D|--------------5555-|
A|-----4444-7777-----|
E|-5555--------------|

End on
G|----|
D|----|
A|-5~-|
E|----|

| /  slide up
| \  slide down
| h  hammer-on
| p  pull-off
| ~  vibrato
| +  harmonic
| x  Mute note
=============================================================================

            
            
Suggest correction
Creating personal tab
Creating personal tab
You can edit any tab online and save it as your Personal.

You can edit, replace or remove any tab part or add personal notes – all changes will be seen only by you.

Personal tabs can be accessed anytime from any device, even offline.
Learn more »
Give kudos to tab author, rate the tab!
1 2 3 4 5
comments
print report bad tab
2 comments total.
0 reply
jiligier 192 Feb 13, 2014 07:41 PM

perfect, except during the solo, it should be

G|-----------|
D|---7-------|
A|-00-0h6h77-|
E|-----------|
and the outro should be
G|-------------------|
D|--------------7777-|
A|-----4444-7777-----|
E|-5555--------------|

0 reply
nikolayugo 31 Oct 14, 2014 04:46 AM

yeah, i realized later that it was not fully correct XD
it was loosely based on the guitar tab that was here, but i was still a beginner bassist when i tabbed it, thanks for correcting me :D

guest
You may want to rate the tab now too:
select rating
Wanna post a correction for this tab? Suggest correction