Oops, an error
Loading. Please wait.

Coolidge tab

version 1
version 1

Whole song

Interactive

4,687 views 1 this week
1 commentread comment
1 2 3 4 5
1 last vote to show rating
add to favorites
×
Save as Personal and add changes to this tab that will be seen only by you. Learn more ›
×
You can save this tab as Personal to edit and correct it or add notes. All changes will be seen only by you. Learn more »
launch autoscroll
font size
0
reset
how to read this tab
guitar tuner
edit
Autoscroll
slow
fast
+/-
esc
set tempo
stop
#----------------------------------PLEASE NOTE---------------------------------#
#This file is the author's own work and represents their interpretation of the #
#song. You may only use this file for private study, scholarship, or research. #
#------------------------------------------------------------------------------##
From: Pancreas@vt.edu
Subject: TAB: Coolidge - The Descendents - coolidge.tab [1/1]
Date: Mon, 31 Jul 95 23:26:41 PST

This is the Solo for "Coolidge" by
the Descendents off of the album "All"

xpy = x pull off to y
xhy = x hammer on y
xsy = x slide to y
(x) = touch harmonic thing at x


e-1s3-------------------------------------------|
B-----4--3--4-3h4p3h4p3h4p3h4p3h4p3h4p3~~~~~~~~-|
G-----------------------------------------------|
D-----------------------------------------------|
A-----------------------------------------------|
E-----------------------------------------------|

e-----------------------------------------------|
B----------------------4--------------4---6---4-|
G-5--5-----------3--5-----5---3----5------------|
D-5--5-----3--5---------------------------------|
A-3--3--6---------------------------------------|
E-x--x------------------------------------------|

e-8h9h11p9p8--------------------------------------------|
B-------------11p9-9h11p9--8-------8h9p8----------------|
G------------------------------10---------10--9--10--9--|
D-------------------------------------------------------|
A-------------------------------------------------------|
E-------------------------------------------------------|

e-------------------------------------|
B-------------------------------------|
G-5--5--5-------------------(5)-------|
D-5--5--5-----3--5----------(5)-------|
A-3--3--3--6------------3-------------|
E-x--x--x-----------------------------|
                             ^Hit whammy bar.

This is the main riff.  Repeat it a bunch of time.

e----------------------|
B----------------------|
G----------------------|
D--------6-------------|
A--------------5-5-6---|
E---6-6-----6----------|


Comments or fixes or anything at all will be really appreciated.
Blobbie Pancreas
pancreas@vt.edu

            
            
Suggest correction
Creating personal tab
Creating personal tab
You can edit any tab online and save it as your Personal.

You can edit, replace or remove any tab part or add personal notes – all changes will be seen only by you.

Personal tabs can be accessed anytime from any device, even offline.
Learn more »
Give kudos to tab author, rate the tab!
1 2 3 4 5
comments
print report bad tab
1 comment total.
0 reply
LORE4697 10 Aug 09, 2015 09:30 AM

The solo is perfect and it has helped me out a lot with covering it but the main riff is wrong.
e----------------------|
B----------------------|
G----------------------|
D--------5-------------|
A--------------3-5-3---|
E---5-5-----5----------|

That is one of the correct ways to do it.

guest
Wanna post a correction for this tab? Suggest correction