Oops, an error
Loading. Please wait.

One More Day bass

385 views 6 this week
no commentswrite comment
1 2 3 4 5
3 more votes to show rating
add to favorites
×
Save as Personal and add changes to this tab that will be seen only by you. Learn more ›
×
You can save this tab as Personal to edit and correct it or add notes. All changes will be seen only by you. Learn more »
launch autoscroll
font size
0
reset
guitar tuner
edit
Autoscroll
slow
fast
+/-
esc
set tempo
stop
Author
Difficulty
-------------------------------------------------------------------------------
                             One More Day - Descendents
-------------------------------------------------------------------------------
Tabbed by: marmalademan
E-mail: marmalademan9000@gmail.com

This tab is a transcription of YouTuber Fuzzy Dustmite's amazing cover of this song. You can watch his video
here: https://www.youtube.com/watch?v=o5XuQbkerGo.
I'm not Fuzzy Dustmite, I just wanted to be able to play it too whenever I wanted, so I transcribed it and 
put it up here.

Tuning: Standard

Intro
G|-------------------------------------------------------------------------------------------------------|
D|-------------------------------------------------------------------------------------------------------|
A|-----------------4-4-4-4--5-5-5-5----------------------------------------------------4-4-4-4--5-5-5-5--|
E|-5-5-5-5-5-5-5-5------------------5-5-5-5-5-5-5-5--2-2-2-2--0-0-0-0--2-2-2-2-2-2-2-2-------------------|

G|--------------------------------------------|
D|--------------------------------------------|
A|--------------------------------------------|
E|-7-7-7-7-7-7-7-7--10-10-10-10-10-10-10--0---|


Verse Part1
G|--------------------------------------------------------------------------------|
D|-------------------------------------11-11--------------------------------------|
A|-12-12-12-12-12-12-12-12-12-12-12-12-------12-12--9-9-9-9-9---9--7-7-7-7-7---7--|
E|------------------------------------------------------------9--------------7----|

G|-----------------------------------------------------------------|
D|-----------------------------------------------------------------|
A|-5-5-5-5-5-5-5-5-5-5-5-5-5-5-5-5---------------------------------|
E|---------------------------------5-7-7-7-7-7-7-7-7-7-7-7-7-7-7-7-|

Verse Part2
G|--------------------------------------------------------------------------------|
D|-------------------------------------11-11--------------------------------------|
A|-12-12-12-12-12-12-12-12-12-12-12-12-------12-12--9-9-9-9-9---9--7-7-7-7-7---7--|
E|------------------------------------------------------------9--------------7----|

G|-----------------------------------------------------------------|
D|-----------------------------------------------------------------|
A|-5-5-5-5-5-5-5-5-5-5-5-5-5-5-5-5-----4-4-4-4-4-4-4-4-------------|
E|---------------------------------5-5-----------------0--0--0--0--|


Bridge Thing
first 5s played half number of times with rests between them on second go
G|------------------------------------------------------------------------------------------------|
D|------------------------------------------------------------------------------------------------|
A|-5-5-5-5-5-5-5-5-5-5-5-5-5-5-5-5---------0h2h3h4-4-4-4-4-4-4-4--5-5-5-5-5-5-5-5-5-5-5-5-5-5-5-5-|
E|---------------------------------2-2-2-2--------------------------------------------------------|

G|-----------------------------------------------------|
D|-----------------------------------------------------|
A|-14-14-14-14-14-14-14-14--19-19--17-17--16-16--14-14-|
E|-----------------------------------------------------|


Chorus Part1
G|----------------------------------------------------------------------------------------------|
D|----------------------------------------------------------------------------------------------|
A|-12--12-12-----------------11-11-------------------------------------------10--10-10-10----10-|
E|----------12-11-10--9--9-9-------9--10-10-10-10-10-10-10\5/7-7-7-7-7-7-7-7--------------10----|

G|--------------------------------------------------------------------|
D|--------9-10-11---------------------------------------------------9-|
A|-9--9-9-----------------7-7-7-7----------------9----9-11-12-11-12---|
E|----------------5-5-5-5----------9-10-12-10-12---12-----------------|

Chorus Part2
G|-------------------------------------------------------------------------------|
D|-------------------------------------------------------------------------------|
A|-12--12-12-----------------11-11------------------------------------14h15p14---|
E|-----------12-11-10-9--9-9-------9--10-10-10-10-10-10-10\5/7-7--9-9------------|

REPEAT FROM BEGINNING ONCE


Another Bridge
G|--------------------------------------------------------------------------------------------------|
D|--------------------------------------------------------------------------------------------------|
A|-10-10-10-10-10-10-10-10-10-10-10-10-10-10-10-10--------------------------------------------------|
E|-------------------------------------------------0-0-0-0--0-0-0--7-7-7-7-7-7-7-7--0-0-0-0-0-0-0-0-|

G|------------------------------------------------------------------------------|
D|--------------------------------------------------------------------10---10---|
A|----10----10------------------------------------------------------9----9----9-|
E|-11----11----11--0-0-0-0--0-0-0--7-7-7-7-7-7-7-7--0-0-0-0-0-0-0-0-------------|

G|---------------------------------------------------------------------------------------------------------|
D|-------------------10---10--------------9----9----10--10-10-10-10-10-10------------9----9----------------|
A|-----------------9----9----9--9h10-9-10---10---10------------------------9h10-9-10---10---10-------------|
E|-8-8-8-8-8-8-8-8-----------------------------------------------------------------------------11~-10~-9~--|

G|-------------------------------|
D|-------------------------------|
A|----------------3--3-3-3-3-3-3-|
E|-1--1-1-1-1-1-1----------------|


Yet Another Bridge
G|-----------------------------------------------------------------------|
D|-----------------------------------------------------------------------|
A|-8-8-8-8-8-8-8-7-5-5-5-5-5-5-7-8-8-8-8-8-8-8-7-5-5-5-5-5-5-5-5------3~-|
E|---------------------------------------------------------------0-1~----|

G|-----------------------------------------------------|
D|-16-16--17-17--18-18--20-20--22-22-22-22-22-22-22-22-|
A|-----------------------------------------------------|
E|-----------------------------------------------------|


Intro Back Into Chorus
G|-------------------------------------------------------------------------------------------------|
D|--------------------------------------------------------7~---------------------------------------|
A|---------------------------------2-3-4-4-4-4-4-4-4-4-------------------------0-2-----------------|
E|-2--2--2--2--2--2--2--2--2-2-2-2---------------------5~----0-5-7-7~-2--2-2-2-----0-0-0-0-0-0-0-0-|

G|--------------------------------------------------------------------------------------|
D|--------------------------------------------------------------------------------------|
A|-5-5-5-5-5-5-5-5-5-5-5-5-5-5-5-5--14-14-14-14-14-14-14-14--19-19--17-17--16-16--14-14-|
E|--------------------------------------------------------------------------------------|


Chorus Part1
G|----------------------------------------------------------------------------------------------|
D|----------------------------------------------------------------------------------------------|
A|-12--12-12-----------------11-11-------------------------------------------10--10-10-10----10-|
E|----------12-11-10--9--9-9-------9--10-10-10-10-10-10-10\5/7-7-7-7-7-7-7-7--------------10----|

G|--------------------------------------------------------------------|
D|--------9-10-11---------------------------------------------------9-|
A|-9--9-9-----------------7-7-7-7----------------9----9-11-12-11-12---|
E|----------------5-5-5-5----------9-10-12-10-12---12-----------------|

Chorus Part2
G|-------------------------------------------------------------------------------|
D|-------------------------------------------------------------------------------|
A|-12--12-12-----------------11-11------------------------------------14h15p14---|
E|-----------12-11-10-9--9-9-------9--10-10-10-10-10-10-10\5/7-7--9-9------------|


Outro Part1
G|-------------------------------------------------------------------------------------------------------|
D|-------------------------------------------------------------------------------------------------------|
A|-----------------4-4-4-4--5-5-5-5----------------------------------------------------4-4-4-4--5-5-5-5--|
E|-5-5-5-5-5-5-5-5------------------5-5-5-5-5-5-5-5--2-2-2-2--0-0-0-0--2-2-2-2-2-2-2-2-------------------|

G|--------------------------------------------|
D|--------------------------------------------|
A|--------------------------------------------|
E|-7-7-7-7-7-7-7-7--10-10-10-10-10-10-10--0---|

Outro Part2
G|---------------------------------------------------------------------------------------------------------|
D|-----------------------------------------------------------------------------------------------------14~-|
A|-----------------4-4-4-4--5-5-5-5----------------------------------------------------4--4-4--5--5-5--12~-|
E|-5-5-5-5-5-5-5-5------------------5-5-5-5-5-5-5-5--2-2-2-2--0-0-0-0--2-2-2-2-2-2-2-2---------------------|


| /  slide up
| \  slide down
| h  hammer-on
| p  pull-off
| ~  vibrato
| +  harmonic
| x  Mute note
===============================================================================

            
            
Suggest correction
Creating personal tab
Creating personal tab
You can edit any tab online and save it as your Personal.

You can edit, replace or remove any tab part or add personal notes – all changes will be seen only by you.

Personal tabs can be accessed anytime from any device, even offline.
Learn more »
Give kudos to tab author, rate the tab!
1 2 3 4 5
comments
print report bad tab
guest
You may want to rate the tab now too:
select rating
Wanna post a correction for this tab? Suggest correction