Oops, an error
Loading. Please wait.

Talking bass

2,153 views 3 this week
2 commentsread comments
1 2 3 4 5
2 more votes to show rating
add to favorites
×
Save as Personal and add changes to this tab that will be seen only by you. Learn more ›
×
You can save this tab as Personal to edit and correct it or add notes. All changes will be seen only by you. Learn more »
launch autoscroll
font size
0
reset
guitar tuner
edit
Autoscroll
slow
fast
+/-
esc
set tempo
stop
Author
Difficulty
Talking 
Descendents
Cool To Be You

Standard

Intro
|-----------------------------------------------------|    ----------------------------
|---10-10-10-(7)---------------10-10-(7)--------------|    -3/-10-10-10-(7)-5----------
|-8--------------10-00000000-8-----------10-00000000--| or -------------------00000000-
|-----------------------------------------------------|    ----------------------------

|------------------14-14-12-11-12-12-11-9-11-11-9-7-9----|
|---10-10-10---------------------------------------------|
|-8----------10-10---------------------------------------|
|-----------------------------------------------------0--|

Verse 2
|----------------------------------------------7-6--------------------------------------|
|------------------7-7-7-6-------------4-4-7-4-----7-------------10-10-10-7-------------|
|-0000000000000000---------4-5-5555555---------------555555555-8------------10-00000000-|
|(5-t-h--f-r-e-t-)----------------------------------------------------------------------|

Pre Chorus
|-----22-4-----------------22-4-----------|----5--2------4--1---|    -------------------
|---4------2-222-00------4------2-2222222-|-333-----3322------2-|    -333/10\7-3222/9\2-    
|-2-----------------44-2------------------|---------------------|    -------------------
|-----------------------------------------|---------------------| or -------------------

Chorus 1
|--------------------------------------------------------------------------------------|
|-----------------------------------4-4------------------------------------------------|
|-------4---------------------5-5-5-----0-----------------------------(or /12----------|
|-5-5-5----5--2-2-2-2-2-2-2-2-------------0-0-0-0-0-2-4-5-5-5-5-5-5-5/17-17-17-17-17-0-|

Verse 2(same as verse 1)

Pre Chorus

Chorus 2
|---------------------------------------------------------------------------------------------|
|-----------------------------------4-4-------------------------------------------------------|
|-------4---------------------5-5-5-----0-----------------------------(or /12,11,9)-----------|
|-5-5-5----5--2-2-2-2-2-2-2-2-------------0-0-0-0-0-2-4-5-5-5-5-5-5-5/17-17-17-16-16-16-14-14-|

Bridge
|--------------------------------------------------------|
|----------------------4-7---------------------------4-7-|
|--------------4-----5-----------------------4-----5-----|
|-0--0~--0-x0----5-2-------0--0~--0--0-(000)---5-2-------|

|------------------------------------------------------------------------------|
|------------------------------------------------------------7777777-66666-7-9-|
|---------------------------5555555-777777777777777-99999999-------------------|
|-0000000000000000-22222222----------------------------------------------------|


Last Verse
|---------------------------------------------7-6--------------------------------------|
|-------------------------------------4-4-7-4-----7-------------10-10-10-7-------------|
|---------------------------5-5555555---------------555555555-8------------10-00000000-|
|-5555555555555555-555-4-2-------------------------------------------------------------|

|---1414--1313--1111--99-141414-13---------------------------7-6----------------------------------|
|----------------------------------11-12-12121212000-4-4-7-4-----7------------10-10-10-7----------|
|-00----00----00----00---------------------------------------------55555555-8------------10-000000|
|-------------------------------------------------------------------------------------------------|

Pre-Chorus

Outro
|-------------------------------------------------------|
|-----------------------------------4-4-----------------|
|-------4---------------------5-5-5-----0---------------|
|-5-5-5----5--2-2-2-2-2-2-2-2-------------0-0-0-0-0-2-4-|

|--------------------------------------------------------|
|------------------------------------4-4-----------------|
|-------4----------------------5-5-5-----0---------------|
|-5-5-5---0-5--2-2-2-2-2-2-2-2-------------0-0-0-0-0-2-4-|

|----------------------------------------------------------|
|-----------------------------------4-4--------------------|
|-------4---------------------5-5-5-----55-7---7---7---7---|
|-5-5-5----5--2-2-2-2-2-2-2-2----------------7---7---7---7-|

|-----------------------------------------------------|   
|---10-10-10---------10-10---------10-10-10-----------|
|-8----------10-10-8-------10-10-8----------10-10--0~-|
|-----------------------------------------------------|
End

---------------------------------------------------------------------
if this doesnt fit in the window sorry, i didnt feel like makin it all perfect. 

the one tabbed by unregistered is mine i forgot to log in lol.






            
            
Suggest correction
Creating personal tab
Creating personal tab
You can edit any tab online and save it as your Personal.

You can edit, replace or remove any tab part or add personal notes – all changes will be seen only by you.

Personal tabs can be accessed anytime from any device, even offline.
Learn more »
Give kudos to tab author, rate the tab!
1 2 3 4 5
comments
print report bad tab
2 comments total.
0 reply
Derrikb 432 Jun 23, 2008 08:37 AM

hey. in the chorus..the part where it goes
--------------------------
-------4-4---------------
-5-5-5-----0-------------
-------------5-5-5-5-5-5-
the F# is only hit once

0 reply
BlenderBR 18,046 Aug 01, 2014 12:41 PM

Perfect tab! Thanks!

guest
You may want to rate the tab now too:
select rating
Wanna post a correction for this tab? Suggest correction