Oops, an error
Loading. Please wait.

Feel The Need In Me bass

version 1
version 1

Whole song

Interactive

202 views 3 this week
no commentswrite comment
1 2 3 4 5
3 more votes to show rating
add to favorites
×
Save as Personal and add changes to this tab that will be seen only by you. Learn more ›
×
You can save this tab as Personal to edit and correct it or add notes. All changes will be seen only by you. Learn more »
launch autoscroll
font size
0
reset
guitar tuner
edit
Autoscroll
slow
fast
+/-
esc
set tempo
stop
Author
Feel The Need In Me
First single release by The Detroit Emeralds in 1973, number 4 in UK
Tab by bass50611. Welcome to my tab of this Seventies Classic and 
As per original bass line. Comments at bass254@btinternet.com 

Intro:                 (Play This Bit x3)
G|------------------------------|
D|-5--7-7-5-4-------------------|
A|------------7-5-4-0---3--5--3-|
|-------------------------------|

G|------------------------------|
D|-5--7-7-5-4-------------------|
A|------------7-5-4-0--2--0-2-4-|
E|-----------------------3------|

Verse 1:
G|--------------------------------------------------------|
D|------------4--4-4--4-----------------------------------|
A|-5--5-5--5------------4--4-4--4---2--2-2--2---2--2-2--2-|
E|--------------------------------------------------------|

G|---------------------------------------|
D|---------------------------------------|
A|-5--5-5--5-----------------------0-2-4-|
E|------------3-5---3-5-5---3-5---3------|

G|--------------------------------------------------------|
D|--------------------------------------------------------|
A|-5--5-5--5------------4--4-4--4---2--2-2--2---2--2-2--2-|
E|------------2--2-2--2-----------------------------------|

G|--------------------------------------|
D|--------------------------------------|
A|-5--5-5--5----------------------------|
E|------------3-5---3-5-5---3-5---3-5-4-|

Bridge:
G|----------------------------------------------------------|
D|----------------------------------------------------------|
A|----------------------------------------------------------|
E|-3--3-3--3---6--6-6--6---5--5-5--5-3-5--5-5--4--3--3-3--3-|

G|------------------------------------|
D|------------------------------------|
A|----------------------------------4-|
E|-6--6-6--6---5--5-5--5-3-5--5-5-7---|

Verse 2:
G|--------------------------------------------------------|
D|------------4--4-4--4-----------------------------------|
A|-5--5-5--5------------4--4-4--4---2--2-2--2---2--2-2--2-|
E|--------------------------------------------------------|

G|---------------------------------------|
D|---------------------------------------|
A|-5--5-5--5-----------------------0-2-4-|
E|------------3-5---3-5-5---3-5---3------|

G|--------------------------------------------------------|
D|------------4--4-4--4-----------------------------------|
A|-5--5-5--5------------4--4-4--4---2--2-2--2---2--2-2--2-|
E|--------------------------------------------------------|

G|----------|
D|----------|
A|-5--5-5—5-|
E|----------|

Instrumental:                 (Play This Bit x5)
G|------------------------------|
D|-5--7-7-5-4-------------------|
A|------------7-5-4-0---3--5--3-|
|-------------------------------|

G|------------------------------|
D|-5--7-7-5-4-------------------|
A|------------7-5-4-0--2--0-2-4-|
E|-----------------------3------|

Verse 3:
G|--------------------------------------------------------|
D|--------------------------------------------------------|
A|-5--5-5--5------------4--4-4--4---2--2-2--2---2--2-2--2-|
E|------------2--2-2--2-----------------------------------|

G|---------------------------------------|
D|---------------------------------------|
A|-5--5-5--5-----------------------0-2-4-|
E|------------3-5---3-5-5---3-5---3------|

G|--------------------------------------------------------|
D|------------4--4-4--4-----------------------------------|
A|-5--5-5--5------------4--4-4--4---2--2-2--2---2--2-2--2-|
E|--------------------------------------------------------|

G|--------------------------------------|
D|--------------------------------------|
A|-5--5-5--5----------------------------|
E|------------3-5---3-5-5---3-5---3-5-4-|

Bridge:
G|----------------------------------------------------------|
D|----------------------------------------------------------|
A|----------------------------------------------------------|
E|-3--3-3--3---6--6-6--6---5--5-5--5-3-5--5-5--4--3--3-3--3-|

G|------------------------------------|
D|------------------------------------|
A|----------------------------------4-|
E|-6--6-6--6---5--5-5--5-3-5--5-5-7---|

Verse 4:
G|--------------------------------------------------------|
D|------------4--4-4--4-----------------------------------|
A|-5--5-5--5------------4--4-4--4---2--2-2--2---2--2-2--2-|
E|--------------------------------------------------------|

G|---------------------------------------|
D|---------------------------------------|
A|-5--5-5--5-----------------------0-2-4-|
E|------------3-5---3-5-5---3-5---3------|

G|--------------------------------------------------------|
D|------------4--4-4--4-----------------------------------|
A|-5--5-5--5------------4--4-4--4---2--2-2--2---2--2-2--2-|
E|--------------------------------------------------------|

G|----------|
D|----------|
A|-5--5-5—5-|
E|----------|

Outro:                 (Repeat To Fade/End)
G|------------------------------|
D|-5--7-7-5-4-------------------|
A|------------7-5-4-0---3--5--3-|
E|------------------------------|


            
            
Suggest correction
Creating personal tab
Creating personal tab
You can edit any tab online and save it as your Personal.

You can edit, replace or remove any tab part or add personal notes – all changes will be seen only by you.

Personal tabs can be accessed anytime from any device, even offline.
Learn more »
Give kudos to tab author, rate the tab!
1 2 3 4 5
comments
print report bad tab
guest
You may want to rate the tab now too:
select rating
Wanna post a correction for this tab? Suggest correction