Oops, an error
Loading. Please wait.

The Rubber Band Man bass

2,604 views 12 this week
no commentswrite comment
1 2 3 4 5
2 more votes to show rating
add to favorites
×
Save as Personal and add changes to this tab that will be seen only by you. Learn more ›
×
You can save this tab as Personal to edit and correct it or add notes. All changes will be seen only by you. Learn more »
launch autoscroll
font size
0
reset
guitar tuner
edit
Autoscroll
slow
fast
+/-
esc
set tempo
stop
Author
Difficulty
The Rubber Band Man
Song Writers: Thom Bell/Linda Creed
Original Artists: The Detroit Spinners
Song Released: 1976
Bassist: Bob Babbitt
Tabbed by bass50611
Not exact as original recording especially in the last
chorus but near enough
Fantastic song hope you enjoy playing
along to it.  Any comments email me at
bass254@btinternet.com

Intro:         (Play this x10 and Break)
G--------------|
D--------------|
A--------------|
E---22222222---|

G--------------------------------------------|
D------------------------------1-4-----------|
A-----------------------------4--------------|
E---2---22222222---2---22---22-------22222---|

Verse & Chorus:
G------------------------------------------------------------------|
D---222-44444444-4444444-222-44444444-44444444-44444444-44444444---|
A------------------------------------------------------------------|
E------------------------------------------------------------------|

G-------------------------------------------------------------------|
D-44444444----------------------------------------------------------|
A--------------------5555-----7777777-333-5555-----7777777-333-5555-|
E----------222222-55------5555----------------5555------------------|

G--------------------------------------------------------------|
D-------2222-2-44---222-444----222-444----222-444---222-444----|
A--------------------------------------------------------------|
E---5555-------------------2----------2----------2---------2---|

Repeat Verse & Chorus:

Bridge:                                                 (a bit quick here)
G-------------------------------------------------------------------|
D---------------------------------------------1-4---------------4---|
A--------------------------------------------4-------------4-6-4----|
E---2---22222222---2---22222222---2---22---22-----22222-5h6---------|

Chorus 2:
G-------------------------------------------------------|
D-------------222222-5------------222222-5--------------|
A---5555------------3---5555------------3---5555--------|
E--------5555----------------5555----------------5555---|

G----------------------------------------------------------|
D---2222-2-44---222-444----222-444----222-444---222-444----|
A----------------------------------------------------------|
E----------------------2----------2----------2---------2---|

Repeat Bridge:

Repeat Chorus 2 to Fade:

            
            
Suggest correction
Creating personal tab
Creating personal tab
You can edit any tab online and save it as your Personal.

You can edit, replace or remove any tab part or add personal notes – all changes will be seen only by you.

Personal tabs can be accessed anytime from any device, even offline.
Learn more »
Give kudos to tab author, rate the tab!
1 2 3 4 5
comments
print report bad tab
guest
You may want to rate the tab now too:
select rating
Wanna post a correction for this tab? Suggest correction