Oops, an error
Loading. Please wait.

Roses tab

version 4
version 4

Whole song

by dEUS
214 views 1 this week
no commentswrite comment
1 2 3 4 5
3 more votes to show rating
add to favorites
×
Save as Personal and add changes to this tab that will be seen only by you. Learn more ›
×
You can save this tab as Personal to edit and correct it or add notes. All changes will be seen only by you. Learn more »
launch autoscroll
font size
0
reset
how to read this tab
guitar tuner
edit
Autoscroll
slow
fast
+/-
esc
set tempo
stop
Author
e---10-10-10-10-10-10-10-10-10-10-10-10-10-10-10-10-----|
B---11-11-11-11-11-11-11-11-10-10-10-10-10-10-10-10-----|
G---12-12-12-12-12-12-12-12-11-11-11-11-11-11-11-11-----|
D---12-12-12-12-12-12-12-12-12-12-12-12-12-12-12-12-----|
A---10-10-10-10-10-10-10-10-12-12-12-12-12-12-12-12-----|
E---10-10-10-10-10-10-10-10-10-10-10-10-10-10-10-10-----|

e---9--9--9--9--9--9--9--9--9--9--9--9--9--9--9--9------|
B---10-10-10-10-10-10-10-10-10-10-10-10-10-10-10-10-----|
G---11-11-11-11-11-11-11-11-11-11-11-11-11-11-11-11-----|
D---11-11-11-11-11-11-11-11-11-11-11-11-11-11-11-11-----|
A---9--9--9--9--9--9--9--9--9--9--9--9--9--9--9--9------|
E---9--9--9--9--9--9--9--9--9--9--9--9--9--9--9--9------|


e---8--8--8--9---9---7-7-7- * still have some doubts about this part
B---8--8--8--9---9---8-8-8- * This one goes when he sings:
G---9--9--9--10--10--9-9-9- *  “Don't look my way
D---10-10-10-11--11--9-9-9- *  What can I possibly say
A---10-10-10-11--11--7-7-7-
E---8--8--8--9---9---7-7-7-

Rose said quote it's time to make a mess 
Time will be soon mine in time I guess
She's painting on my back a beautiful flowerpot 
And she treats me she treats me she treats me like her local god

Rose said quote it's time to make a mess
This one's yours and yours is self obsessed
She's painting on my back a green tom, the beefheart one
And she cuddles and she coos and she cuts the bullshit I confessed

She said:"Don't look my way
What can I possibly say
I've never seen you before today
I'm just the one that makes you think of the one
that makes you feel you're the one"

But thank you for the roses, for the roses
so thank you for the roses, for the roses
thank you for the roses, for the roses
thank you for the roses, for the roses

Rose said quote it's time to make a mess
remind me what it is that I do best
She's painting on my back some beautiful something sweet
And she treats me she treats me she beats me 

Rose said quote my time has come at last
Ugly things through my mind they have passed
She's scratching on my back 'if this boy believes me'
She leaves me, deceives me and takes those flowers just to please me.....

Rose don't mind where she been
She been blind
She been mine
All this time
She been kind
She been mine
She said: "Thank you for the roses, for the roses" (just to please me)
Thank you for the roses, for the roses(just to please me)
Thank you for the roses, for the roses(just to please me) 
Thank you for the roses, for the roses(just to please me) 
Thank you.

            
            
Suggest correction
Creating personal tab
Creating personal tab
You can edit any tab online and save it as your Personal.

You can edit, replace or remove any tab part or add personal notes – all changes will be seen only by you.

Personal tabs can be accessed anytime from any device, even offline.
Learn more »
Give kudos to tab author, rate the tab!
1 2 3 4 5
comments
print report bad tab
guest
You may want to rate the tab now too:
select rating
Wanna post a correction for this tab? Suggest correction