Oops, an error
Loading. Please wait.

Will Is My Friend tab

version 3
version 3

Whole song

5,570 views 12 this week
1 commentread comment
1 2 3 4 5
x 5
add to favorites
×
Save as Personal and add changes to this tab that will be seen only by you. Learn more ›
×
You can save this tab as Personal to edit and correct it or add notes. All changes will be seen only by you. Learn more »
launch autoscroll
font size
0
reset
how to read this tab
guitar tuner
edit
Autoscroll
slow
fast
+/-
esc
set tempo
stop
Author
Difficulty
-------------------------------------------------------------------------------
                             Will Is My Friend - Devendra Banhart
-------------------------------------------------------------------------------

Okay so I'll show ya the picking pattern first with the chords written above
and then I'll give ya the lyrics with the chords in the right places so that
you can play it easily.


      C                  G                    F       C

e|------3-3-3-0-------------3-3-1-0---------------------0-----|
B|------1-------------------0-------------------1---1---1-----|
G|------0-------------------0-------------------2---1h2-0-----|
D|----------------------------------------------3---3---------|
A|----3---3---3---3---0-------------------------------3---3---|
E|------------------------3---3---3---3---0---1---1-----------|


C
Will is my friend

G
Will sings like John

F                        C
Goin' back to California

Will is the west
Coast with me
Will is a past
Is a plenty
Will is a good friend of mine
With whom I spend a whole lot of my time

The lemon tree
It laughs at me
It's growing beautifully
The little veins
It would unwind
And it'll wrap your whole in time
Now let's have a glass of wine
Now let's have another glass of wine

This is the water
In which we wade
This is our father
And this is how he strayed
This is the wind
And this is the breeze
I ooooo eeee
Will is my friend
Will sings like John
Goin' back to California 

            
            
Suggest correction
Creating personal tab
Creating personal tab
You can edit any tab online and save it as your Personal.

You can edit, replace or remove any tab part or add personal notes – all changes will be seen only by you.

Personal tabs can be accessed anytime from any device, even offline.
Learn more »
comments
print report bad tab
1 comment total.
0 reply
thebonsaiprojects 10 Aug 27, 2017 09:46 AM

Thanks! Just F and C on the "Will is a good.../Let's have another glass..." bits, I reckon! :)

guest
You may want to rate the tab now too:
select rating
Wanna post a correction for this tab? Suggest correction