Oops, an error
Loading. Please wait.

Guilty As Sin tab

version 2
version 2

Whole song

Interactive

1,505 views 1 this week
no commentswrite comment
1 2 3 4 5
2 more votes to show rating
add to favorites
×
Save as Personal and add changes to this tab that will be seen only by you. Learn more ›
×
You can save this tab as Personal to edit and correct it or add notes. All changes will be seen only by you. Learn more »
launch autoscroll
font size
0
reset
how to read this tab
guitar tuner
edit
Autoscroll
slow
fast
+/-
esc
set tempo
stop
Devil Driver - Guilty as sin
Tabbed by BE Krustie 
Tuning is drop D down one and one half steps 
x's are soley to take up space and show obvious seperation in nubers like 14x15
and to take up space under chords played such as the    10
                                                        8x
*'s are for Palm muting
/'s for up neck slides (higher)
\'s for down neck slides (lower)
h's for hammer ons 
I know that this isn't perfect but it is very close and if you 
can change anything please email me updated tabs at 
archie_andrews@hotmail.com

C#|---------------------------------------| Intro 1
G#|---------------------------------------|
E |------------------------------------7h9|
B |---------------------------------5h7---|
F#|------55535--7777--88888--8---5h7------| 
B |12\3-0------0-----0--------5h7---------|
        *      *     *                               

C#|------------------------------------| Intro 2
G#|------------------------------------|
E |------------------------------------|
B |-------------------------------0h2--|
F#|----------------------------0h2---0-| 
B |0-77757-0-5555-0-33333-3-0h2--------|
   *       *      *      
C#|-------------------------------------------------------------------------| 
G#|-------------------------------------------------------------------------|
E |-------------------------------7h9---------------------------------------|
B |----------------------------5h7------------------------------------0h2---|
F#|-55535--7777--88888--8---5h7------------------------------------0h2---0--| 
B |0------0-----0--------5h7-----------0-77757-0-5555-0-33333-3-0h2---------|
   *      *     *                      *       *      *                          
C#|-------------------------------------------------------------------------| 
G#|-------------------------------------------------------------------------|
E |---------------------------------------------------------------------7h9-|
B |----------77757----------9-9-9----------10-10-10------------------5h7----|
F#|----------55535----------7-7-7----------8x-8x-8x---------------5h7-------|
B |0-0-0-0-0------0-0-0-0-0------0-0-0-0-0----------0-0-0-0-0--5h7----------|
   * * * * *      * * * * *      * * * * *          * * * * * 
C#|-------------------------------------------------------------------------| 
G#|-------------------------------------------------------------------------|
E |-------------------------------------------------------------------------|
B |--------------------------------------------------------------0h2--------|
F#|----------77757-----------5-5-5-----------3-3-3-2-3-2-3----0h2---0-------|
B |0-0-0-0-0-77757-0-0-0-0-0-5-5-5-0-0-0-0-0-3-3-3-2-3-2-3-0h2--------------|
   * * * * *       * * * * *       * * * * * * * * * * * *        
C#|-------------------------------------------------------------------------| 
G#|-------------------------------------------------------------------------|
E |---------------------------------------------------------------------7h9-|
B |----------77757----------9-9-9----------10-10-10------------------5h7----|
F#|----------55535----------7-7-7----------8x-8x-8x---------------5h7-------|
B |0-0-0-0-0------0-0-0-0-0------0-0-0-0-0----------0-0-0-0-0--5h7----------|
   * * * * *      * * * * *      * * * * *          * * * * * 

C#|-------------------------------------------------------------------------| 
G#|-------------------------------------------------------------------------|
E |-------------------------------------------------------------------------|
B |--------------------------------------------------------------0h2--------|
F#|----------77757-----------5-5-5-----------3-3-3-2-3-2-3----0h2---0-------|
B |0-0-0-0-0-77757-0-0-0-0-0-5-5-5-0-0-0-0-0-3-3-3-2-3-2-3-0h2--------------|
   * * * * *       * * * * *       * * * * * * * * * * * *    

C#|-------------------------------------------------------------------------| 
G#|-------------------------------------------------------------------------|
E |-------------------------------7h9---------------------------------------|
B |----------------------------5h7------------------------------------0h2---|
F#|-55535--7777--88888--8---5h7------------------------------------0h2---0--| 
B |0------0-----0--------5h7-----------0-77757-0-5555-0-33333-3-0h2---------|
   *      *     *                      *       *      *            
C#|-------------------------------------------------------------------------| 
G#|-------------------------------------------------------------------------|
E |-------------------------------7h9---------------------------------------|
B |----------------------------5h7------------------------------------0h2---|
F#|-55535--7777--88888--8---5h7------------------------------------0h2---0--| 
B |0------0-----0--------5h7-----------0-77757-0-5555-0-33333-3-0h2---------|
   *      *     *                      *       *      *                    

C#|-------------------------------------------------------------------------| 
G#|-------------------------------------------------------------------------|
E |---------------------------------------------------------------------7h9-|
B |----------77757----------9-9-9----------10-10-10------------------5h7----|
F#|----------55535----------7-7-7----------8x-8x-8x---------------5h7-------|
B |0-0-0-0-0------0-0-0-0-0------0-0-0-0-0----------0-0-0-0-0--5h7----------|
   * * * * *      * * * * *      * * * * *          * * * * * 

C#|-------------------------------------------------------------------------| 
G#|-------------------------------------------------------------------------|
E |-------------------------------------------------------------------------|
B |--------------------------------------------------------------0h2--------|
F#|----------77757-----------5-5-5-----------3-3-3-2-3-2-3----0h2---0-------|
B |0-0-0-0-0-77757-0-0-0-0-0-5-5-5-0-0-0-0-0-3-3-3-2-3-2-3-0h2--------------|
   * * * * *       * * * * *       * * * * * * * * * * * *    

C#|-------------------------------------------------------------------------| 
G#|-------------------------------------------------------------------------|
E |---------------------------------------------------------------------7h9-|
B |----------77757----------9-9-9----------10-10-10------------------5h7----|
F#|----------55535----------7-7-7----------8x-8x-8x---------------5h7-------|
B |0-0-0-0-0------0-0-0-0-0------0-0-0-0-0----------0-0-0-0-0--5h7----------|
   * * * * *      * * * * *      * * * * *          * * * * * 

C#|-------------------------------------------------------------------------| 
G#|-------------------------------------------------------------------------|
E |-------------------------------------------------------------------------|
B |--------------------------------------------------------------0h2--------|
F#|----------77757-----------5-5-5-----------3-3-3-2-3-2-3----0h2---0-------|
B |0-0-0-0-0-77757-0-0-0-0-0-5-5-5-0-0-0-0-0-3-3-3-2-3-2-3-0h2--------------|
   * * * * *       * * * * *       * * * * * * * * * * * *  

C#|-------------------------------------------------------------------------| 
G#|-------------------------------------------------------------------------|
E |-------------------------------7h9---------------------------------------|
B |----------------------------5h7------------------------------------0h2---|
F#|-55535--7777--88888--8---5h7------------------------------------0h2---0--| 
B |0------0-----0--------5h7-----------0-77757-0-5555-0-33333-3-0h2---------|
   *      *     *                      *       *      *     

C#|-------------------------------------------------------------------------| 
G#|-------------------------------------------------------------------------|
E |-------------------------------7h9---------------------------------------|
B |----------------------------5h7------------------------------------0h2---|
F#|-55535--7777--88888--8---5h7------------------------------------0h2---0--| 
B |0------0-----0--------5h7-----------0-77757-0-5555-0-33333-3-0h2---------|
   *      *     *                      *       *      *   

C#|---------------------------------| Subriff 1 x1
G#|---------------------------------|
E |---------------------------------|    
B |---------------------------------|               
F#|12-----11-----10-----9-----8---7-|               
B |12-0-0-11-0-0-10-0-0-9-0-0-8-0-7-|  
      * *    * *    * *   * *   *                                         
C#|------------------------------------| Subriff2 x3
G#|------------------------------------|
E |------------------------------------| 
B |------------------------------------|
F#|---12-----11-----10-----9-----8---7-|
B |-0-12-0-0-11-0-0-10-0-0-9-0-0-8-0-7-|
    *    * *    * *    * *   * *   *
C#|---------------------------------| Subriff 3 x1
G#|---------------------------------|
E |---------------------------------|
B |---------------------------------|
F#|12----11----10----9----8/9---7---|
B |12-00011-00010-0009-0008/9-0-7---|
      ***   ***   ***  ***    *
C#|------------------------------------| subriff 4 x3
G#|------------------------------------|
E |------------------------------------|
B |------------------------------------|
F#|---12----11----10----9----8/9---7---|
B |00012-00011-00010-0009-0008/9-0-7---|
   ***   ***   ***   ***  ***    *
C#|---------------------------------------| Intro 1
G#|---------------------------------------|
E |------------------------------------7h9|
B |---------------------------------5h7---|
F#|------55535--7777--88888--8---5h7------| 
B |12\3-0------0-----0--------5h7---------|
        *      *     *      
C#|------------------------------------| Intro 2
G#|------------------------------------|
E |------------------------------------|
B |-------------------------------0h2--|
F#|----------------------------0h2---0-| 
B |0-77757-0-5555-0-33333-3-0h2--------|
   *       *      *      

C#|-------------------------------------------------------------------------| 
G#|-------------------------------------------------------------------------|
E |-------------------------------7h9---------------------------------------|
B |----------------------------5h7------------------------------------0h2---|
F#|-55535--7777--88888--8---5h7------------------------------------0h2---0--| 
B |0------0-----0--------5h7-----------0-77757-0-5555-0-33333-3-0h2---------|
   *      *     *                      *       *      *                      

C#|------------------------------------------------------| Subriff 5
G#|------------------------------------------------------|
E |------------------------------------------------------|
B |------------------------------------------------------|
F#|--12x11x12---10x9x10----14x14x14x14x14x15x15x15x15x15-|
B |0-12x11x12-0-10x9x10----14x14x14x14x14x15x15x15x15x15-|
   *          *     
C#|--------------------------------------| Subriff 6 (play Sub5 then Sub 6 and repeat)
G#|--------------------------------------|
E |--------------------------------------|
B |--------------------------------------|
F#|--12x11x12---10x9x10----55553333------|
B |0-12x11x12-0-10x9x10----55553333------|
   *          *                             

            
            
Suggest correction
Creating personal tab
Creating personal tab
You can edit any tab online and save it as your Personal.

You can edit, replace or remove any tab part or add personal notes – all changes will be seen only by you.

Personal tabs can be accessed anytime from any device, even offline.
Learn more »
Give kudos to tab author, rate the tab!
1 2 3 4 5
comments
print report bad tab
guest
Wanna post a correction for this tab? Suggest correction