Oops, an error
Loading. Please wait.

These Fighting Words tab

version 1
version 1

Whole song

Interactive

11,131 views 1 this week
4 commentsread comments
1 2 3 4 5
x 9
add to favorites
×
Save as Personal and add changes to this tab that will be seen only by you. Learn more ›
×
You can save this tab as Personal to edit and correct it or add notes. All changes will be seen only by you. Learn more »
launch autoscroll
font size
0
reset
how to read this tab
guitar tuner
backing track
0:00
0:00
edit
Autoscroll
slow
fast
+/-
esc
set tempo
stop
Intro:
d|---------------------------------------------------------------------|
a|---------------------------------------------------------------------|
f|---------------------------------------------------------------------|
c|0--3--2--------------------------------------------------------------|
g|0--------3-----------------------------------------------------------|
c|0--------------------------------------------------------------------|

d|---------------------------------------------------------------------|
a|---------------------------------------------------------------------|
f|---------------------------------------------------------------------|
c|---------------------------------------------------------------------|
g|0-0-0000-0-0-0000-0-0-000000000000-----------------------------------|
c|0-0-0000-0-0-0000-0-0-000000000000-----------------------------------|
pm..................................

:32 seconds in, Listen to the song for strumming pattern.
d|---------------------------------------------------------------------|
a|---------------------------------------------------------------------|
f|7---9--10---12---9---7---9--10--12---6-------------------------------|
c|x---x---x----x---x---x---x---x---x---x-------------------------------|
g|5---7---8---10---7---5---7---8--10---4-------------------------------|
c|---------------------------------------------------------------------|

Guitar 2
d|-----------------------------------------------------------------------------------|
a|-----------------------------------------------------------------------------------|
f|-----------------------------------------------------------------------------------|
c|-----------------------------------------------------------------------------------|
g|0-0-0000-0-0-0000-8-8-888888888888-10-10-10101010-10-10-10101010-7-7-777777777777--|
c|0-0-0000-0-0-0000-8-8-888888888888-10-10-10101010-10-10-10101010-7-7-777777777777--|
pm.................................................................................

:Bridge thingy 42 seconds
d|-------------------------------------------------------------------------|
a|-------------------------------------------------------------------------|
f|-------------------------------------------------------------------------|
c|-------------------------------------------------------------2-----2-----|
g|----5---8-----7-----8---7----10--7-----5---8---4---7------------3-----3--|
c|000---0---000---000---0---0--------000---0---0---0----00-0-0-------------|
pm...   .   ...   ...   .   .        ...   .   .   .    .. . .
Guitar 2
d|-------------------------------------------------------------------------|
a|-------------------------------------------------------------------------|
f|--------------------------------------------------------------9-----9----|
c|----------------------------------------------------------------10----10-|
g|----5---8-----7-----8---7----10--7-----5---8---4---7---------------------|
c|000---0---000---000---0---0--------000---0---0---0----00-0-0-------------|
pm...   .   ...   ...   .   .        ...   .   .   .    .. . .

d|------------------------------------------------|
a|------------------------------------------------|
f|------------------------------------------------|
c|------------------------------------------------|
g|0-0-000-0-0-000---------------------------------|
c|0-0-000-0-0-000-1/6-6/7-7-10/-------------------|

Verse:4X
d|--------------------------------------|
a|--------------------------------------|
f|--------------------------------------|
c|6666/---------------------------------|
g|6666/-0-0-000-0-0-000-0-0-000---------|
c|6666/-0-0-000-0-0-000-0-0-000---------|
 pm.    . . ... . . ... . . ...

Then:
d|--------------------------------------|
a|--------------------------------------|
f|--------------------------------------|
c|--------------------------------------|
g|--------------------------------------|
c|8888888877777777----------------------|

PreChorus:2X
d|----------------------------------------------------------------------|
a|----------------------------------------------------------------------|
f|----------------------------------------------------------------------|
c|----------------------------------------------------------------------|
g|0-0-0-0-0-0-0-0-8-8-8-8-8-8-8-8-3-3-3-3-3-3-3-3-5-5-5-5-7-7-7-7-------|
c|0-0-0-0-0-0-0-0-8-8-8-8-8-8-8-8-3-3-3-3-3-3-3-3-5-5-5-5-7-7-7-7-------|
pm...............................................................
Guitar 2
d|----------------------------------------------------------------------|
a|----------------------------------------------------------------------|
f|7------10-------9-------10------10--------------9---------------------|
c|----------------------------------------------------------------------|
g|----------------------------------------------------------------------|
c|----------------------------------------------------------------------|

Chorus:Strumming pattern differs from the intro
d|---------------------------------------------|
a|---------------------------------------------|
f|7---9--10---12---9---7---9--10--12---6-------|
c|x---x---x----x---x---x---x---x---x---x-------|
g|5---7---8---10---7---5---7---8--10---4-------|
c|---------------------------------------------|

Thats basically it aside from the solo which I don't know enjoy.

            
            
Suggest correction
Creating personal tab
Creating personal tab
You can edit any tab online and save it as your Personal.

You can edit, replace or remove any tab part or add personal notes – all changes will be seen only by you.

Personal tabs can be accessed anytime from any device, even offline.
Learn more »
comments
print report bad tab
4 comments total. Showing first comments.
+1 reply
cslink 151 Oct 11, 2008 03:06 PM

i think the tab sounds good, idk why ppl are rating it so low. pretty sick song to no doubt. good job dude

+2 reply
cslink 151 Dec 02, 2008 08:53 AM

correction... this is exactly how a 4* tab would look, almost perfect but just something is off. never the less u did better then anyone else

0 reply
systematication 188 Jul 08, 2009 09:55 AM

I'm going to tab this up the best I can. Most of that little 'hero' riff is right, but it varies in different sections. I'm going to see what I can do. The rhythm in the chorus for sure should go:

d|------------------------------------------------|
a|------------------------------------------------|
f|7---9--10--10---12---9---7---9--10--10---12---6-|
c|x---x---x---x---x----x---x---x---x---x---x----x-|
g|5---7---8---8---10---7---5---7---8---8---10---4-|
c|------------------------------------------------|

guest
You may want to rate the tab now too:
select rating
Wanna post a correction for this tab? Suggest correction