Oops, an error
Loading. Please wait.

Hitchcock Blonde tab

169 views 3 this week
no commentswrite comment
1 2 3 4 5
2 more votes to show rating
add to favorites
×
Save as Personal and add changes to this tab that will be seen only by you. Learn more ›
×
You can save this tab as Personal to edit and correct it or add notes. All changes will be seen only by you. Learn more »
launch autoscroll
font size
0
reset
how to read this tab
guitar tuner
edit
Autoscroll
slow
fast
+/-
esc
set tempo
stop
About this tab version
Tab created from the Official Video of Hitchcock Blonde - https://www.youtube.com/watch?v=tQbZ-tQycEY , as well as two live versions: https://www.youtube.com/watch?v=RUP_JnzabeE and https://www.youtube.com/watch?v=MEpjFpinh7M. It's the first tab I've written, my apologies for any mistakes - It's more of a rough draft, if anything. My video (very rough and crudely filmed) to get a better idea of how it sounds - https://www.youtube.com/watch?v=wcLVzzuxJXQ. Was this info helpful? Yes No
[Intro]
D|---------------------------------------------------------------------------------|
A|---------------------------------------------------------------------------------|
F|---------------------------------------------------------------------------------|     x2
C|-0-3-2-0---------3-3-3-3-3-3-2-2-2-2-5-5-5---------------------------------------|
G|-0-3-2-0-------------------------------------------------------------------------|
C|-0-3-2-0-------------------------------------------------------------------------|

D|---------------------------------------------------------------------------------|
A|---------------------------------------------------------------------------------|
F|---------------------------------------------------------------------------------| Fades into keyboard
C|-0-3-2-0---------3-3-3-3-3-3-2-2-2-7-7-8-7---------------------------------------|
G|-0-3-2-0-------------------------------------------------------------------------|
C|-0-3-2-0-------------------------------------------------------------------------|

[Verse]
D|---------------------------------------------------------------------------------|
A|---------------------------------------------------------------------------------|
F|---------------------------------------------------------------------------------|
C|-0-0-2-0-0---------------7-----------5/7/8\7\5/7---------------------------------|
C|-0-0-2-0-0-5-----0-0-0---7---0-0-0---5/7/8\7\5/7---------------------------------|
C|-0-0-2-0-0-0-----0-0-0---7---0-0-0---5/7/8\7\5/7---------------------------------|
PM - - - - -       - - -       - - -           

D|---------------------------------------------------------------------------------|
A|---------------------------------------------------------------------------------|
F|---------------------------------------------------------------------------------|
C|-0-0-2-0-0---------------7-----------5/7/8-3-------------------------------------|
C|-0-0-2-0-0-5-----0-0-0---7---0-0-0---5/7/8-3-------------------------------------|
C|-0-0-2-0-0-0-----0-0-0---7---0-0-0---5/7/8-3-------------------------------------|
PM - - - - -       - - -       - - -     

D|---------------------------------------------------------------------------------|
A|---------------------------------------------------------------------------------|
F|---------------------------------------------------------------------------------|
C|-0-0-2-0-0--------------7---0-0-----5/7/8\7\5/7----7-5-3-5-7-8-7----5-3-5-8-7----|
G|-0-0-2-0-0-5----0-0-0-0-7---0-0-----5/7/8\7\5/7----7-5-3-5-7-8-7----5-3-5-8-7----|
C|-0-0-2-0-0-0----0-0-0-0-7---0-0-----5/7/8\7\5/7----7-5-3-5-7-8-7----5-3-5-8-7----|
PM - - - - -       - - - -   


D|---------------------------------------------------------------------------------|
A|---------------------------------------------------------------------------------| 
F|---------------------------------------------------------------------------------|
C|-------------------------------------------------------------1-------------------|
G|-5---5-1-0-----------------------5---5-1-0-------------------1-------------------|
C|-0---0-0-0-x-x-x-x-x-x-x-x-x-x-x-0---0-0-0-x-x-x-x-x-x-x-x-x-1-------------------|


D|---------------------------------------------------------------------------------|
A|---------------------------------------------------------------------------------| 
F|---------------------------------------------------------------------------------|
C|-------------------------------------------------------------0-2-3-2-0-2-0-------|
G|-5---5-4-0-----------------------5---5-1-0-------------------0-2-3-2-0-2-0-------|
C|-0---0-0-0-x-x-x-x-x-x-x-x-x-x-x-0---0-0-0-x-x-x-x-----------0-2-3-2-0-2-0-------|


D|---------------------------------------------------------------------------------|
A|---------------------------------------------------------------------------------|
F|---------------------------------------------------------------------------------|
C|---------------------------------------------------------------------------------|
G|---------------------------------------------------------------------------------|
C|x-x-x-x-x-x-x-x-x-x-x-x-x-x-x-x-x-x-x-x-x-x-x-x-x-x-x-x-x-x-x-x-x-x-x-x-x-x-x-x-x|

Keep strumming until next section ^

D|------------------|
A|------------------|
F|------------------|
C|-0-3-2-0----0-----|
G|-0-3-2-0----0-----|
C|-0-3-2-0----0-----|
              *
* increase volume from mute to full

[Verse]
D|---------------------------------------------------------------------------------|
A|---------------------------------------------------------------------------------|
F|---------------------------------------------------------------------------------|
C|-0-0-2-0-0---------------7-----------5/7/8\7\5/7---------------------------------|
C|-0-0-2-0-0-5-----0-0-0---7---0-0-0---5/7/8\7\5/7---------------------------------|
C|-0-0-2-0-0-0-----0-0-0---7---0-0-0---5/7/8\7\5/7---------------------------------|
PM - - - - -       - - -       - - -           

D|---------------------------------------------------------------------------------|
A|---------------------------------------------------------------------------------|
F|---------------------------------------------------------------------------------|
C|-0-0-2-0-0---------------7-----------5/7/8-3-------------------------------------|
C|-0-0-2-0-0-5-----0-0-0---7---0-0-0---5/7/8-3-------------------------------------|
C|-0-0-2-0-0-0-----0-0-0---7---0-0-0---5/7/8-3-------------------------------------|
PM - - - - -       - - -       - - -     

D|---------------------------------------------------------------------------------|
A|---------------------------------------------------------------------------------|
F|---------------------------------------------------------------------------------|
C|-0-0-2-0-0--------------7---0-0-----5/7/8\7\5/7----7-5-3-5-7-8-7----5-3-5-8-7----|
G|-0-0-2-0-0-5----0-0-0-0-7---0-0-----5/7/8\7\5/7----7-5-3-5-7-8-7----5-3-5-8-7----|
C|-0-0-2-0-0-0----0-0-0-0-7---0-0-----5/7/8\7\5/7----7-5-3-5-7-8-7----5-3-5-8-7----|
PM - - - - -       - - - -   

D|---------------------------------------------------------------------------------|
F|---------------------------------------------------------------------------------| 
F|---------------------------------------------------------------------------------|
C|-------------------------------------------------------------1-------------------|
G|-5---5-1-0-----------------------5---5-1-0-------------------1-------------------|
C|-0---0-0-0-x-x-x-x-x-x-x-x-x-x-x-0---0-0-0-x-x-x-x-x-x-x-x-x-1-------------------|


D|---------------------------------------------------------------------------------|
A|---------------------------------------------------------------------------------| 
F|---------------------------------------------------------------------------------|
C|-------------------------------------------------------------0-2-3-2-0-2-0-------|
G|-5---5-4-0-----------------------5---5-1-0-------------------0-2-3-2-0-2-0-------|
C|-0---0-0-0-x-x-x-x-x-x-x-x-x-x-x-0---0-1-0-x-x-x-x-----------0-2-3-2-0-2-0-------|


D|---------------------------------------------------------------------------------|
A|---------------------------------------------------------------------------------|
F|---------------------------------------------------------------------------------|
C|---------------------------------------------------------------------------------|
G|---------------------------------------------------------------------------------|
C|x-x-x-x-x-x-x-x-x-x-x-x-x-x-x-x-x-x-x-x-x-x-x-x-x-x-x-x-x-x-x-x-x-x-x-x-x-x-x-x-x|

Keep strumming until next section ^

D|------------------|
A|------------------|
F|------------------|
C|-0-3-2-0----0-----|
G|-0-3-2-0----0-----|
C|-0-3-2-0----0-----|
              *
* increase volume from mute to full

[Verse]
D|---------------------------------------------------------------------------------|
A|---------------------------------------------------------------------------------|
F|---------------------------------------------------------------------------------|
C|-0-0-2-0-0---------------7-----------5/7/8\7\5/7---------------------------------|
C|-0-0-2-0-0-5-----0-0-0---7---0-0-0---5/7/8\7\5/7---------------------------------|
C|-0-0-2-0-0-0-----0-0-0---7---0-0-0---5/7/8\7\5/7---------------------------------|
PM - - - - -       - - -       - - -           

D|---------------------------------------------------------------------------------|
A|---------------------------------------------------------------------------------|
F|---------------------------------------------------------------------------------|
C|-0-0-2-0-0---------------7-----------5/7/8-3-------------------------------------|
C|-0-0-2-0-0-5-----0-0-0---7---0-0-0---5/7/8-3-------------------------------------|
C|-0-0-2-0-0-0-----0-0-0---7---0-0-0---5/7/8-3-------------------------------------|
PM - - - - -       - - -       - - -     

D|---------------------------------------------------------------------------------|
A|---------------------------------------------------------------------------------|
F|---------------------------------------------------------------------------------|
C|-0-0-2-0-0--------------7---0-0-----5/7/8\7\5/7----7-5-3-5-7-8-7----5-3-5-8-7----|
G|-0-0-2-0-0-5----0-0-0-0-7---0-0-----5/7/8\7\5/7----7-5-3-5-7-8-7----5-3-5-8-7----|
C|-0-0-2-0-0-0----0-0-0-0-7---0-0-----5/7/8\7\5/7----7-5-3-5-7-8-7----5-3-5-8-7----|
PM - - - - -       - - - -    

D|---------------------------------------------------------------------------------|
A|---------------------------------------------------------------------------------|
F|---------------------------------------------------------------------------------|    
C|-0-3-2-1--------1---------1-----1-1-1-----0-3-2-1---------4-/-----5--------------|
G|-0-3-2-1----1-1-1-----1-1-1-----1-1-1-----0-3-2-1-----4-4-4-/-5-5-5---7-7-7-7-7--|
C|-0-3-2-1----1-1-1-----1-1-1-----1-1-1-----0-3-2-1-----4-4-4-/-5-5-5-/-7-7-7-7-7--|
           PM - -    PM - -    PM - -    PM - - -    PM - -  PM - -  PM - -


D|---------------------------------------------------------------------------------|
A|---------------------------------------------------------------------------------|
F|---------------------------------------------------------------------------------|    
C|-0-3-2-1-------------------------------------------------------------------------|
G|-0-3-2-1----1-1-1---1-1-1---1-1-1-----5\3\1/3/5/6\5\3\1/3/6\5--------------------|
C|-0-3-2-1----1-1-1---1-1-1---1-1-1------------------------------------------------|
           PM - - -   - - -   - - -          

D|---------------------------------------------------------------------------------|
A|---------------------------------------------------------------------------------|
F|---------------------------------------------------------------------------------|    
C|-0-3-2-1--------1---------1---------1-----0-3-2-1---------4-/-----5--------------|
G|-0-3-2-1----1-1-1-----1-1-1-----1-1-1-----0-3-2-1-----4-4-4-/-5-5-5---7-7-7-7-7--|
C|-0-3-2-1----1-1-1-----1-1-1-----1-1-1-----0-3-2-1-----4-4-4-/-5-5-5-/-7-7-7-7-7--|
           PM - -    PM - -    PM - -                PM - -  PM - -  PM - -

D|---------------------------------------------------------------------------------|
A|---------------------------------------------------------------------------------|
F|---------------------------------------------------------------------------------|    
C|-0-3-2-1-------------------------------------------------------------------------|
G|-0-3-2-1----1-1-1---1-1-1---1-1-1-----5\3\1/3/5/6\5\3\1/3/6\5--------------------|
C|-0-3-2-1----1-1-1---1-1-1---1-1-1------------------------------------------------|


D|---------------------------------------------------------------------------------|
A|---------------------------------------------------------------------------------|
F|---------------------------------------------------------------------------------|
C|---------------------------------------------------------------------------------|
G|---------------------------------------------------------------------------------|
C|x-x-x-x-x-x-x-x-x-x-x-x-x-x-x-x-x-x-x-x-x-x-x-x-x-x-x-x-x-x-x-x-x-x-x-x-x-x-x-x--|

Keep strumming until next section ^

D|------------------|
A|------------------|
F|------------------|
C|-0-3-2-0----0-----|
G|-0-3-2-0----0-----|
C|-0-3-2-0----0-----|
              *

* increase volume from mute to full

[Verse]
D|---------------------------------------------------------------------------------|
A|---------------------------------------------------------------------------------|
F|---------------------------------------------------------------------------------|
C|-0-0-2-0-0---------------7-----------5/7/8\7\5/7---------------------------------|
C|-0-0-2-0-0-5-----0-0-0---7---0-0-0---5/7/8\7\5/7---------------------------------|
C|-0-0-2-0-0-0-----0-0-0---7---0-0-0---5/7/8\7\5/7---------------------------------|
PM - - - - -       - - -       - - -           

D|---------------------------------------------------------------------------------|
A|---------------------------------------------------------------------------------|
F|---------------------------------------------------------------------------------|
C|-0-0-2-0-0---------------7-----------5/7/8-3-------------------------------------|
C|-0-0-2-0-0-5-----0-0-0---7---0-0-0---5/7/8-3-------------------------------------|
C|-0-0-2-0-0-0-----0-0-0---7---0-0-0---5/7/8-3-------------------------------------|
PM - - - - -       - - -       - - -     

D|---------------------------------------------------------------------------------|
A|---------------------------------------------------------------------------------|
F|---------------------------------------------------------------------------------|
C|-0-0-2-0-0--------------7---0-0-----5/7/8\7\5/7----7-5-3-5-7-8-7----5-3-5-8-7----|
G|-0-0-2-0-0-5----0-0-0-0-7---0-0-----5/7/8\7\5/7----7-5-3-5-7-8-7----5-3-5-8-7----|
C|-0-0-2-0-0-0----0-0-0-0-7---0-0-----5/7/8\7\5/7----7-5-3-5-7-8-7----5-3-5-8-7----|
PM - - - - -       - - - - 

D|---------------------------------------------------------------------------------|
A|---------------------------------------------------------------------------------|
F|---------------------------------------------------------------------------------|
C|-0-0-2-0-0---------------7---0-0-----5/7/8\7\5/7---------------------------------|
C|-0-0-2-0-0-5-----0-0-0-0-7---0-0-----5/7/8\7\5/7---------------------------------|
C|-0-0-2-0-0-0-----0-0-0-0-7---0-0-----5/7/8\7\5/7---------------------------------|
PM - - - - -       - - - -       

D|---------------------------------------------------------------------------------|
A|---------------------------------------------------------------------------------|
A|---------------------------------------------------------------------------------|
C|-0-0-2-0-0---------------7---0-0-----5/7/8-3-------------------------------------|
C|-0-0-2-0-0---------------7---0-0-----5/7/8-3-------------------------------------|
C|-0-0-2-0-0-0-----0-0-0-0-7---0-0-----5/7/8-3-------------------------------------|
PM - - - - -       - - - -         

D|---------------------------------------------------------------------------------|
A|---------------------------------------------------------------------------------|
F|---------------------------------------------------------------------------------|
C|-0-0-2-0-0--------------7---0-0-----5/7/8\7\5/7----7-5-3-5-7-8-7----5-3-5-8-7----|
G|-0-0-2-0-0-5----0-0-0-0-7---0-0-----5/7/8\7\5/7----7-5-3-5-7-8-7----5-3-5-8-7----|
C|-0-0-2-0-0-0----0-0-0-0-7---0-0-----5/7/8\7\5/7----7-5-3-5-7-8-7----5-3-5-8-7----|
 


************************************

| /   Slide up
| \   Slide down
| PM  Palm mute
| x   Dead note

************************************

            
            
Suggest correction
Creating personal tab
Creating personal tab
You can edit any tab online and save it as your Personal.

You can edit, replace or remove any tab part or add personal notes – all changes will be seen only by you.

Personal tabs can be accessed anytime from any device, even offline.
Learn more »
Give kudos to tab author, rate the tab!
1 2 3 4 5
comments
print report bad tab
guest
You may want to rate the tab now too:
select rating
Wanna post a correction for this tab? Suggest correction