Oops, an error
Loading. Please wait.

Mother Kali tab

779 views 3 this week
no commentswrite comment
1 2 3 4 5
x 4
add to favorites
×
Save as Personal and add changes to this tab that will be seen only by you. Learn more ›
×
You can save this tab as Personal to edit and correct it or add notes. All changes will be seen only by you. Learn more »
launch autoscroll
font size
0
reset
how to read this tab
guitar tuner
edit
Autoscroll
slow
fast
+/-
esc
set tempo
stop
DEVILMENT

MOTHER KALI

C-G-C-F-A-D

TABBED BY andherembrace





---------------------------------------------------------------|
---------------------------------------------------------------|
---------------------------------------------------------------|
--^-----------^-----------^-------^-----------^----------------|
-5-0---------5-0---------5-0-----5-0---------5-0---------5--6--|
-----0-0-0-0-----0-0-0-0-----0-0-----0-0-0-0-----0-0-0-0-------|
     * * * *     * * * *     * *     * * * *     * * * * 

---------------------------------------------------------------|
---------------------------------------------------------------|
---------------------------------------------------------------|
--^-----------^-----------^-------^-----------^----------------|
-5-0---------5-0---------5-0-----5-0---------5-0---------6-----|
-----0-0-0-0-----0-0-0-0-----0-0-----0-0-0-0-----0-0-0-0-------|
     * * * *     * * * *     * *     * * * *     * * * * 

---------------------------------------------------------------|
---------------------------------------------------------------|
---------------------------------------------------------------|
--^-----------^-----------^-------^-----------^----------------|
-5-0---------5-0---------5-0-----5-0---------5-0---------5--6--|
-----0-0-0-0-----0-0-0-0-----0-0-----0-0-0-0-----0-0-0-0-------|
     * * * *     * * * *     * *     * * * *     * * * * 


---------------------------------------------------------------|
---------------------------------------------------------------|
---------------------------------------------------------------|
--^-----------^-----------^-------^-----------^----------------|
-5-0---------5-0---------5-0-----5-0---------5-0---------6-----|
-----0-0-0-0-----0-0-0-0-----0-0-----0-0-0-0-----0-0-0-0-6-----|
     * * * *     * * * *     * *     * * * *     * * * * 




0:24

----------------------------------------------------------------------------|
----------------------------------------------------------------------------|
----------------------------------------------------------------------------|
----------------------------------------------------------------------------|
-0000---0000---00---0000---0000---00---0000---0000---00---0000---0000---00--|
-0000---0000---00---0000---0000---00---0000---0000---00---0000---0000---00--|
 ****   ****   **   ****   ****   **   ****   ****   **   ****   ****   **

--------------------------------------------------------------------------------|
--------------------------------------------------------------------------------|
--------------------------------------------------------------------------------|
--------------------------------------------------------------------------------|
-0000---0000---00---0000---0000---00---0000---0000---00---0000---0000---00---0--|
-0000---0000---00---0000---0000---00---0000---0000---00---0000---0000---00---0--|
 ****   ****   **   ****   ****   **   ****   ****   **   ****   ****   **   *





0:45

--------------------------------------------------------------------------|
--------------------------------------------------------------------------|
--------------------------------------------------------------------------|
--------------------------------------------------------------------------|
---^--------^--------^--------^--------^--------^--------^--------^-------|
-10-7-7-7-12-7-7-7-10-7-7-7-12-7-7-7-10-7-7-7-12-7-7-7-10-7-7-7-12-7-7-7--|
      * *      * *      * *      * *      * *      * *      * *      * *
 

--------------------------------------------------------------------------|
--------------------------------------------------------------------------|
--------------------------------------------------------------------------|
--------------------------------------------------------------------------|
---^--------^--------^--------^--------^--------^--------^--------^-------|
-10-7-7-7-12-7-7-7-10-7-7-7-12-7-7-7-10-7-7-7-12-7-7-7-10-7-7-7-12-7-7-7--|
      * *      * *      * *      * *      * *      * *      * *      * *
 
----------------------------------|
----------------------------------|
---^--------^--------^--------^---|
-10-7-7-7-12-7-7-7-10-7-7-7-12-7--|
----------------------------------|
----------------------------------|





0:54


------------------------------------------------------------|
------------------------------------------------------------|
------------------------------------------------------------|
------------------------------------------------------------|
----------5--------------5--------------3--------------3----|
-0----3---------0----3---------0----2---------0----2--------|


--------------------------------------------------------------|
--------------------------------------------------------------|
--------------------------------------------------------------|
--------------3---------------3-------------------------------|
----------5---------------5---------------3--------------3----|
-0----3----------0----3----------0----2---------0----2------\-|




1:11

------------------------------------------------------------------|
------------------------------------------------------------------|
------------------------------------------------------------------|
------------------------------------------------------------------|
-------------5-5-5-5-5-5-5-5-5-5-------------5-5-5-5-5-5-5-5-5-5--|
-0-0-0-0-3-3---------------------0-0-0-0-3-3----------------------|
 * * * * * * * * * * * * * * * * * * * * * * * * * * * * * * * * 

                                                 semi - - - - -
------------------------------------------------------------------|
------------------------------------------------------------------|
------------------------------------------------------------------|
------------------------------------------------------------------|
-------------3-3-3-3-3-3-3-3-3-3-------------3-3-5-5-3-3-3-3-3-3--|
-0-0-0-0-2-2---------------------0-0-0-0-2-2----------------------|
 * * * * * * * * * * * * * * * * * * * * * * * * * * * * * * * *

semi throughout
------------------------------------------------------------------|
------------------------------------------------------------------|
------------------------------------------------------------------|
------------------------------------------------------------------|
-------------5-5-5-5-5-5-5-5-5-5-------------5-5-5-5-5-5-5-5-5-5--|
-0-0-0-0-3-3---------------------0-0-0-0-3-3----------------------|
 * * * * * * * * * * * * * * * * * * * * * * * * * * * * * * * * 


semi throughout
------------------------------------------------------------------|
------------------------------------------------------------------|
------------------------------------------------------------------|
------------------------------------------------------------------|
-------------3-3-3-3-3-3-3-3-3-3-------------3-3-3-3-3-3-3-3-3-3--|
-0-0-0-0-2-2---------------------0-0-0-0-2-2----------------------|
 * * * * * * * * * * * * * * * * * * * * * * * * * * * * * * * *




1:26


----------------------------------------------------------------------------|
----------------------------------------------------------------------------|
----------------------------------------------------------------------------|
----------------------------------------------------------------------------|
-0000---0000---00---0000---0000---00---0000---0000---00---0000---0000---00--|
-0000---0000---00---0000---0000---00---0000---0000---00---0000---0000---00--|
 ****   ****   **   ****   ****   **   ****   ****   **   ****   ****   **

----------------------------------------------------------------------------|
----------------------------------------------------------------------------|
----------------------------------------------------------------------------|
----------------------------------------------------------------------------|
-0000---0000---00---0000---0000---00---0000---0000---00---0000---0000---00--|
-0000---0000---00---0000---0000---00---0000---0000---00---0000---0000---00--|
 ****   ****   **   ****   ****   **   ****   ****   **   ****   ****   **


----------------------------------------------------------------------------|
----------------------------------------------------------------------------|
----------------------------------------------------------------------------|
----------------------------------------------------------------------------|
-0000---0000---00---0000---0000---00---0000---0000---00---0000---0000---00--|
-0000---0000---00---0000---0000---00---0000---0000---00---0000---0000---00--|
 ****   ****   **   ****   ****   **   ****   ****   **   ****   ****   **





1:50

--------------------------------------------------------------------------|
--------------------------------------------------------------------------|
--------------------------------------------------------------------------|
--------------------------------------------------------------------------|
---^--------^--------^--------^--------^--------^--------^--------^-------|
-10-7-7-7-12-7-7-7-10-7-7-7-12-7-7-7-10-7-7-7-12-7-7-7-10-7-7-7-12-7-7-7--|
      * *      * *      * *      * *      * *      * *      * *      * *
 
--------------------------------------------------------------------------|
--------------------------------------------------------------------------|
--------------------------------------------------------------------------|
--------------------------------------------------------------------------|
---^--------^--------^--------^--------^--------^--------^--------^-------|
-10-7-7-7-12-7-7-7-10-7-7-7-12-7-7-7-10-7-7-7-12-7-7-7-10-7-7-7-12-7-7-7--|
      * *      * *      * *      * *      * *      * *      * *      * *
 
----------------------------------|
----------------------------------|
---^--------^--------^--------^---|
-10-7-7-7-12-7-7-7-10-7-7-7-12-7--|
----------------------------------|
----------------------------------|





2:00

------------------------------------------------------------|
------------------------------------------------------------|
------------------------------------------------------------|
------------------------------------------------------------|
----------5--------------5--------------3--------------3----|
-0----3---------0----3---------0----2---------0----2--------|


--------------------------------------------------------------|
--------------------------------------------------------------|
--------------------------------------------------------------|
--------------3---------------3-------------------------------|
----------5---------------5---------------3--------------3----|
-0----3----------0----3----------0----2---------0----2------\-|





2:16

------------------------------------------------------------------|
------------------------------------------------------------------|
------------------------------------------------------------------|
------------------------------------------------------------------|
-------------5-5-5-5-5-5-5-5-5-5-------------5-5-5-5-5-5-5-5-5-5--|
-0-0-0-0-3-3---------------------0-0-0-0-3-3----------------------|
 * * * * * * * * * * * * * * * * * * * * * * * * * * * * * * * * 



------------------------------------------------------------------|
------------------------------------------------------------------|
------------------------------------------------------------------|
------------------------------------------------------------------|
-------------3-3-3-3-3-3-3-3-3-3-------------3-3-3-3-3-3-3-3-3-3--|
-0-0-0-0-2-2---------------------0-0-0-0-2-2----------------------|
 * * * * * * * * * * * * * * * * * * * * * * * * * * * * * * * *


semi throughout
------------------------------------------------------------------|
------------------------------------------------------------------|
------------------------------------------------------------------|
------------------------------------------------------------------|
-------------5-5-5-5-5-5-5-5-5-5-------------5-5-5-5-5-5-5-5-5-5--|
-0-0-0-0-3-3---------------------0-0-0-0-3-3----------------------|
 * * * * * * * * * * * * * * * * * * * * * * * * * * * * * * * * 


semi throughout
------------------------------------------------------------------|
------------------------------------------------------------------|
------------------------------------------------------------------|
------------------------------------------------------------------|
-------------3-3-3-3-3-3-3-3-3-3-------------3-3-3-3-3-3-3-3-3-3--|
-0-0-0-0-2-2---------------------0-0-0-0-2-2----------------------|
 * * * * * * * * * * * * * * * * * * * * * * * * * * * * * * * *





2:32

-----------------------------------------------------------------------------------------------|
-----------------------------------------------------------------------------------------------|
-----------------------------------------------------------------------------------------------|
-----------------------------------------------------------------------------------------------|
--^--------^--------^------^--------^-------6-6--^--------^--------^------^--------^-------6-6-|
-3-0-0000-5-0-0000-6-0-00-3-0-0000-5-0-0000-6-6-3-0-0000-5-0-0000-6-0-00-3-0-0000-5-0-0000-6-6-|
     ****     ****     **     ****     ****         ****     ****     **     ****     ****

-----------------------------------------------------------------------------------------------|
-----------------------------------------------------------------------------------------------|
-----------------------------------------------------------------------------------------------|
-----------------------------------------------------------------------------------------------|
--^--------^--------^------^--------^-------6-6--^--------^--------^------^--------^-------6---|
-3-0-0000-5-0-0000-6-0-00-3-0-0000-5-0-0000-6-6-3-0-0000-5-0-0000-6-0-00-3-0-0000-5-0-0000-6---|
     ****     ****     **     ****     ****         ****     ****     **     ****     ****


-----------------------------------------------------------------------------------------------|
-----------------------------------------------------------------------------------------------|
-----------------------------------------------------------------------------------------------|
-----------------------------------------------------------------------------------------------|
--^--------^--------^------^--------^-------6-6--^--------^--------^------^--------^-------6-6-|
-3-0-0000-5-0-0000-6-0-00-3-0-0000-5-0-0000-6-6-3-0-0000-5-0-0000-6-0-00-3-0-0000-5-0-0000-6-6-|
     ****     ****     **     ****     ****         ****     ****     **     ****     ****




2:56

---------------------------------------------------------------|
---------------------------------------------------------------|
---------------------------------------------------------------|
---------------------------------------------------------------|
-------------------------2-2-------------------------2-2--2-2--|
-3-2-0-3-2-0-3-2-0-3-2-0-2-2-3-2-0-3-2-0-3-2-0-3-2-0-2-2--2-2--|
 * * * * * * * * * * * *     * * * * * * * * * * * *

---------------------------------------------------------------|
---------------------------------------------------------------|
---------------------------------------------------------------|
---------------------------------------------------------------|
-------------------------2-2-------------------------2-2--2-2--|
-3-2-0-3-2-0-3-2-0-3-2-0-2-2-3-2-0-3-2-0-3-2-0-3-2-0-2-2--2-2--|
 * * * * * * * * * * * *     * * * * * * * * * * * *



3:06


------------------------------------------------------------|
------------------------------------------------------------|
------------------------------------------------------------|
------------------------------------------------------------|
----------5--------------5--------------3--------------3----|
-0----3---------0----3---------0----2---------0----2--------|


--------------------------------------------------------------|
--------------------------------------------------------------|
--------------------------------------------------------------|
--------------3---------------3-------------------------------|
----------5---------------5---------------3--------------3----|
-0----3----------0----3----------0----2---------0----2------\-|



------------------------------------------------------------------|
------------------------------------------------------------------|
------------------------------------------------------------------|
------------------------------------------------------------------|
-------------5-5-5-5-5-5-5-5-5-5-------------5-5-5-5-5-5-5-5-5-5--|
-0-0-0-0-3-3---------------------0-0-0-0-3-3----------------------|
 * * * * * * * * * * * * * * * * * * * * * * * * * * * * * * * * 



------------------------------------------------------------------|
------------------------------------------------------------------|
------------------------------------------------------------------|
------------------------------------------------------------------|
-------------3-3-3-3-3-3-3-3-3-3-------------3-3-3-3-3-3-3-3-3-3--|
-0-0-0-0-2-2---------------------0-0-0-0-2-2----------------------|
 * * * * * * * * * * * * * * * * * * * * * * * * * * * * * * * *


semi throughout
------------------------------------------------------------------|
------------------------------------------------------------------|
------------------------------------------------------------------|
------------------------------------------------------------------|
-------------5-5-5-5-5-5-5-5-5-5-------------5-5-5-5-5-5-5-5-5-5--|
-0-0-0-0-3-3---------------------0-0-0-0-3-3----------------------|
 * * * * * * * * * * * * * * * * * * * * * * * * * * * * * * * * 


semi throughout
------------------------------------------------------------------|
------------------------------------------------------------------|
------------------------------------------------------------------|
------------------------------------------------------------------|
-------------3-3-3-3-3-3-3-3-3-3-------------3-3-3-3-3-3-3-3-3-3--|
-0-0-0-0-2-2---------------------0-0-0-0-2-2----------------------|
 * * * * * * * * * * * * * * * * * * * * * * * * * * * * * * * *




--------------------------------------|
--------------------------------------|
--------------------------------------|
--------------------------------------|
-0000--00000-0-00-0--0000--00000------|
-0000--00000-0-00-0--0000--00000------|
 ****  ***** * ** *  ****  *****




            
            
Suggest correction
Creating personal tab
Creating personal tab
You can edit any tab online and save it as your Personal.

You can edit, replace or remove any tab part or add personal notes – all changes will be seen only by you.

Personal tabs can be accessed anytime from any device, even offline.
Learn more »
comments
print report bad tab
guest
You may want to rate the tab now too:
select rating
Wanna post a correction for this tab? Suggest correction