Oops, an error
Loading. Please wait.

Numbered guitar pro

1,312 views 1 this week
3 commentsread comments
1 2 3 4 5
2 more votes to show rating
add to favorites
guitar tuner
Autoscroll
slow
fast
+/-
esc
set tempo
stop
"Numbered"
demo version
Play now

or get full version for Free

×
Get full version now!
Learn and play this song
in Tab Pro
Try for free

or get $10 off Welcome Bonus

Get welcome bonus
Get access to Tab Pro version of “Numbered”!
Tab Pro is a premium guitar tab service, available on PC, Mac, iOS and Android
TRY FOR FREE
To download “Numbered” Guitar Pro tab click button below
Please note that you must have Guitar Pro software installed on your
computer in order to view this file.
Suggest correction
Give kudos to tab author, rate the tab!
1 2 3 4 5
comments
report bad tab
3 comments total.
0 reply
dogfacedgod 289 Jul 02, 2013 03:49 AM

This is a very good and accurate tab and definitely deserves 5*!
The only thing I want to mention is that Devin actually plays the sweeps one string lower which you can see on his youtube video of playing this song http://www.youtube.com/watch?v=UepMjHkkqFg.

E|-------------------------------------------------|
C|-------------------7--11-7-----------------------|
G|----------------9-----------9--------------------|
C|----------7--11----------------11-7--------------|
G|-------9-----------------------------9-----------|
C|-7--11----------------------------------11-7--11-|

E|-------------------------------------------------|
C|-------------------7--11-7-----------------------|
G|----------------8-----------8--------------------|
C|----------7--11----------------11-7--------------|
G|-------8-----------------------------8-----------|
C|-7--11----------------------------------11-7--11-|

E|-------------------------------------------------|
C|-------------------7--11-7-----------------------|
G|----------------7-----------7--------------------|
C|----------7--11----------------11-7--------------|
G|-------7-----------------------------7-----------|
C|-7--11----------------------------------11-7--11-|

Also I'm not sure that the last high arpeggio has the same notes as you tabbed (I mean, the second half in bar 68 of your tab). I'll try to check it later when I have my guitar with me :).

0 reply
guitarstormy 1,198 Jul 04, 2013 04:31 PM

OH thank you for rating it! I'll try to fix that later, thanks for your correction bro!

0 reply
tnunnelee3 10 Nov 10, 2017 01:52 AM

Good Job on the tab!

guest
You may want to rate the tab now too:
select rating