Oops, an error
Loading. Please wait.

Too Much Paranoias tab

by Devo
997 views 6 this week
1 commentread comment
1 2 3 4 5
x 4
add to favorites
×
Save as Personal and add changes to this tab that will be seen only by you. Learn more ›
×
You can save this tab as Personal to edit and correct it or add notes. All changes will be seen only by you. Learn more »
launch autoscroll
font size
0
reset
how to read this tab
guitar tuner
edit
Autoscroll
slow
fast
+/-
esc
set tempo
stop
Author
Difficulty
Tuning: Standard (E A D G B e)

(This is a very easy song to play. It's mainly this riff being played over and over:)
e|---------------|
B|--3-2p0---3-2--|
G|--3-2p0---3-2--|
D|2-------2------|
A|---------------|
E|---------------|

(The riff is altered slightly at the end of the chorus:)
e|----------3-2----|
B|--3-2p0---3-2----|
G|--3-2p0----------|
D|2-------2-----2--|
A|--------------2--|
E|--------------0--|

(Then there's the mutated solo. If you want to play it as well, invest in a ring 
modulator. All Bob1 and Bob2 do here is hit a low-E power chord after Mark finishes a certain part.)

(After the solo is over the lead guitar continues to play this:)
e|-----------------------------|
B|--3-2p0---3-2----3-2p0---3-2-|
G|--3-2p0---3-2----3-2p0---3-2-|
D|2-------2------2-------2-----|
A|-----------------------------|
E|-----------------------------|

(While the rhythm guitar does this twice:)
e|-----------------------------|
B|-----------------------------|
G|-----------------------------|
D|2--------------2-------------|
A|2--------------2-------------|
E|0--------------0-------------|

e|----------3-2----|
B|--3-2p0---3-2----|
G|--3-2p0----------|
D|2-------2-----2--|
A|--------------2--|
E|--------------0--|


************************************

| p  Pull-off

************************************

            
            
Suggest correction
Creating personal tab
Creating personal tab
You can edit any tab online and save it as your Personal.

You can edit, replace or remove any tab part or add personal notes – all changes will be seen only by you.

Personal tabs can be accessed anytime from any device, even offline.
Learn more »
comments
print report bad tab
1 comment total.
0 reply
N3WW4V3N1NJ4 1,124 Jul 19, 2013 01:09 PM

Thanks! 5*

guest
You may want to rate the tab now too:
select rating
Wanna post a correction for this tab? Suggest correction