Oops, an error
Loading. Please wait.

Walk Hard tab

version 3
version 3

Whole song

30,702 views 3 this week
2 commentsread comments
1 2 3 4 5
x 11
add to favorites
×
Save as Personal and add changes to this tab that will be seen only by you. Learn more ›
×
You can save this tab as Personal to edit and correct it or add notes. All changes will be seen only by you. Learn more »
launch autoscroll
font size
0
reset
how to read this tab
guitar tuner
edit
Autoscroll
slow
fast
+/-
esc
set tempo
stop
Difficulty
I haven't seen a good tab for this yet, so I'll just post mine.

Intro:
|-------------------------------------------------|
|-------------------------------------------------|
|-------------------------------------------------|
|----------------------------0h1h4b---0-----------|
|--2-4-4b-2---2h4b-4-2---2-4------------2-4-------|
|-------------------------------------------------|

Verse:
Walk hard, Hard, Down life's, Rocky road
      Bm    D           G            A     F#

Walk bold, Hard, Its my creed, My code
      Bm    D           G            A     F#

Chorus:
I've been sworn and slandered and ridiculed too
            E                         A      E

Had to struggle everyday my whole life through
        D                      G          D


Seen my share of the worse that this world can give
            E                         A         E


But I still got a dream and a burning rage to live
       F#     

Verse:
Walk hard, Hard, When they say, You're all done
      Bm    D               G               A     F#

Walk bold, Hard, Though they say, You're not the one
      Bm    D                 G                   A     F#

Chorus:
Even if you've been told time and time again
            E                      A      E


That you're always gonna lose and you're never gonna win
            E                              A          E


Gotta keep that vision in your mind's eye
       E                         A     E

When you're standing on top of a mountain high
       F#

Bridge:
Here I usually just solo around on the minor pentatonic starting on the second fret, the scale is:

|--------------------------------2--5------|
|---------------------------2--5-----------|
|--------------------2-4-4b----------------|
|--------------2h3h4-----------------------|
|--------2h3h4-----------------------------|
|--2--5------------------------------------|

(Play solo throughout)
You know when I was a boy
Folks used to say to me
"Slow down Dewey, don't walk so hard"
And I used to tell them
Life's a race, and I'm in it to win it
And I'll walk as damn hard as I please
How do I walk boys?

{HARD}

And the last bit goes same as the first! Thanks all, D-Baccs out.

            
            
Suggest correction
Creating personal tab
Creating personal tab
You can edit any tab online and save it as your Personal.

You can edit, replace or remove any tab part or add personal notes – all changes will be seen only by you.

Personal tabs can be accessed anytime from any device, even offline.
Learn more »
comments
print report bad tab
2 comments total.
+1 reply
syngates620 21 Mar 21, 2010 11:31 PM

you got the intro wrong but close

---------3-----------2----------x---------2------
---------0-----------3----------3---------3------
---------0-----------4----------2---------4------
---------0-----------4-----0-4--4---------4------
--2-4-5--2--4/5-4-2--2---4------x---5-4-2-2------
---------3-----------x----------x---------x------

enjoy

+2 reply
eric4184 40 Jan 27, 2011 04:35 PM

this is deweys actual version

e----------3--------2----------2--------2--
b----------3--------3----------3--------3--
g----------4--------4----------2--------4--
d----------5--------4--------4-0--------4--
a--2-4-5---5--5-4-2-2--2-4-5------5-4-2-2--
E--------3-3--------2-------------------2--

guest
Wanna post a correction for this tab? Suggest correction