Oops, an error
Loading. Please wait.

Medicine intro tab

by DeWolff
2,574 views 6 this week
1 commentread comment
1 2 3 4 5
x 3
add to favorites
×
Save as Personal and add changes to this tab that will be seen only by you. Learn more ›
×
You can save this tab as Personal to edit and correct it or add notes. All changes will be seen only by you. Learn more »
launch autoscroll
font size
0
reset
how to read this tab
guitar tuner
edit
Autoscroll
slow
fast
+/-
esc
set tempo
stop
Author
Difficulty
Bm                 F#           E             Bm
--------------2------------2---------------------------------------|
------3h5p3-3---3--------2---2-----------------------3h5b-3-5-3----|
-----4-----4------4----3-------3---9-9---9---------4------------4--|
----4------------------------------9-9---9-------------------------|
--2------------------------------7-----7---5-7--2------------------|
--------------------2----------------------------------------------|

this is nearly the whole song.

            
            
Suggest correction
Creating personal tab
Creating personal tab
You can edit any tab online and save it as your Personal.

You can edit, replace or remove any tab part or add personal notes – all changes will be seen only by you.

Personal tabs can be accessed anytime from any device, even offline.
Learn more »
Give kudos to tab author, rate the tab!
1 2 3 4 5
comments
print report bad tab
1 comment total.
+1 reply
lukemosborne95 10 Jun 05, 2015 04:00 AM


The first bar and the fourth bar are right but the second bar should be F#m and the third bar should look like this
Em
-------0--0--0--|
-------0--3--0--|
-------0--2--0--|
----2--2--0--2--|
--2-------------|
0---------------|

guest
You may want to rate the tab now too:
select rating
Wanna post a correction for this tab? Suggest correction