Oops, an error
Loading. Please wait.
53,261 views 1 this week
3 commentsread comments
1 2 3 4 5
x 9
add to favorites
×
Save as Personal and add changes to this tab that will be seen only by you. Learn more ›
×
You can save this tab as Personal to edit and correct it or add notes. All changes will be seen only by you. Learn more »
launch autoscroll
font size
0
reset
how to read this tab
guitar tuner
backing track
0:00
0:00
edit
Autoscroll
slow
fast
+/-
esc
set tempo
stop
Author
Difficulty
intermediate
e|------x-/-/-15-\-\-\-\---------------------------------------------|
B|------x-/-\-15-\-\-\-\---------------------------------------------|
G|------x-/-/--x-\-\-\-\---------------------------------------------|
D|------x-/-/--x-\-\-\-\---------------------------------------------|
A|-------------------------------------------------------------------|
E|------------------0-0-0-0-0-0-0-0-0-0-0-0-0-0-0-0-0-0-0-0-0-0-0-0--|

(For this part, tremelo pick on the open E string while randomly fretting
the other notes.)
e|--------------------------------------------------------------------|
B|--------------------------------------------------------------------|
G|--------------------------------------------------------------------|
D|--------------------------------------------------------------------|
A|--------------------------------------------------------------------|
E|e-0--13--16--17--16--19--17--20--19--17--19--17--16--17--13--12-----|

e|-------------------------------------------------------------------|
B|-------------------------------------------------------------------|
G|-------------------------------------------------------------------|
D|-------------------------------------------------------------------|
A|-------------------------------------------------------------------|
E|--12--11--10--9--8--7--6--5--4--3--2--1--0-\-\-\-12----------------|

[Melody 1]
(Make sure you play continuous 16th notes, the timing is very important)
e|----------------------------------------------------------------------|
B|----------------------------------------------------------------------|
G|----------------------------------------------------------------------|
D|----------------------------------------------------------------------|
A|----------------------------------------------------------------------|
E|-0-0-0-0-0-0-1-1-4-4-4-4-5-5-5-5-7-7-7-7-7-7-8-8-11-11-11-11-8-8-8-8--|

e|-----------------------------------|
B|-----------------------------------|
G|-----------------------------------|
D|-----------------------------------|
A|-----------------------------------|
E|-7-7-7-7-7-7-7-7-7-7-7-7-12-\-\-\--|

e|----------------------------------------------------------------------|
B|----------------------------------------------------------------------|
G|----------------------------------------------------------------------|
D|----------------------------------------------------------------------|
A|----------------------------------------------------------------------|
E|-0-0-0-0-0-0-1-1-4-4-4-4-5-5-5-5-7-7-7-7-7-7-8-8-11-11-11-11-8-8-8-8--|

e|----------------------------------------|
B|----------------------------------------|
G|----------------------------------------|
D|----------------------------------------|
A|----------------------------------------|
E|-7-7-7-7-7-7-7-7-7-7-7-7-12-/-14-\-\-\--|

e|-----------------------------------------------------|
B|-----------------------------------------------------|
G|-----------------------------------------------------|
D|-----------------------------------------------------|
A|-----------------------------------------------------|
E|-8-8-8-8-10--8--8p7-8p7-5--7-7-7-7-8--7--5p4-5p4-5---|

e|-----------------------------------|
B|-----------------------------------|
G|-----------------------------------|
D|-----------------------------------|
A|-----------------------------------|
E|--7-7-7-7-7-7-7-7-7-7-7-7-5-5-7-7--|

e|-----------------------------------------------------|
B|-----------------------------------------------------|
G|-----------------------------------------------------|
D|-----------------------------------------------------|
A|-----------------------------------------------------|
E|-8-8-8-8-10--8--8p7-8p7-5--7-7-7-7-8--7--5p4-5p4-1---|

e|----------------------------------|
B|----------------------------------|
G|----------------------------------|
D|----------------------------------|
A|----------------------------------|
E|-0-0-0-0-0-0-0-0-0-0-0-0-0-0-0-0--|

e|-12-12-12-12-11-11-11-11-10-10-10-10-9-9-9-9---------|
B|--12-12-12-12-11-11-11-11-10-10-10-10-9-9-9-9--------|
G|-----------------------------------------------------|
D|-----------------------------------------------------|
A|-----------------------------------------------------|
E|-(0)-------------------------------------------------|

[Melody 2]
(For this part of the song, you play the exact same notes as the first part,
only it's all on the high e string. Picking this fast on the high e string
is harder than on the low E string, so it might take some practice. Make sure you keep 
pick strokes very small and only hit the one string.)

[Interlude]
e|--------------------------------------|
B|--------------------------------------|
G|--------------------------------------|
D|--------------------------------------|
A|--------------------------------------|
E|-5-5-5-5-5-5-5-5-5-5-5-5-5-5-4-4-5-5--|

e|--------------------------------------|
B|--------------------------------------|
G|--------------------------------------|
D|--------------------------------------|
A|--------------------------------------|
E|-7-7-7-7-7-7-7-7-7-7-7-7-7-7-5-5-7-7--|

e|----------------------------------------|
B|----------------------------------------|
G|----------------------------------------|
D|----------------------------------------|
A|----------------------------------------|
E|-8-8-8-8-7-7-8-8-11-11-11-11-8-8-11-11--|

e|--------------------------------------------------|
B|--------------------------------------------------|
G|--------------------------------------------------|
D|--------------------------------------------------|
A|--------------------------------------------------|
E|-12-12-12-12-12-12-12-12-12-12-12-12-12-12-12-12--|

e|--------------------------------------|
B|--------------------------------------|
G|--------------------------------------|
D|--------------------------------------|
A|--------------------------------------|
E|-5-5-5-5-5-5-5-5-5-5-5-5-5-5-4-4-5-5--|

e|--------------------------------------|
B|--------------------------------------|
G|--------------------------------------|
D|--------------------------------------|
A|--------------------------------------|
E|-7-7-7-7-7-7-7-7-7-7-7-7-7-7-5-5-7-7--|

e|-----------------------------------------------|
B|-----------------------------------------------|
G|-----------------------------------------------|
D|-----------------------------------------------|
A|-----------------------------------------------|
E|-8-8-8-8-7-7-8-8-11-11-11-11-8-8-8-8--5-\-\-\--|

e|----------------------------------------------------------|
B|----------------------------------------------------------|
G|----------------------------------------------------------|
D|----------------------------------------------------------|
A|----------------------------------------------------------|
E|-4-x-x-x-4-x-x-x-4-x-x-x-4-4-5-5-5-x-x-x-5-x-x-x-5-x-x-x--|

e|----------------------------------------------------------|
B|----------------------------------------------------------|
G|----------------------------------------------------------|
D|----------------------------------------------------------|
A|----------6-------6-------6-6-7-7-7-------7-------7-------|
E|-7-7-5-5-4-x-x-x-4-x-x-x-4-4-5-5-5-x-x-x-5-x-x-x-5-x-x-x--|

e|---------4-------4-------4-4-5-5-5-------5-------5--------|
B|----------4-------4-------4-4-5-5-5-------5-------5-------|
G|----------5-------5-------5-5-6-6-6-------6-------6-------|
D|----------6-------6-------6-6-7-7-7-------7-------7-------|
A|--9-9-7-7-6-------6-------6-6-7-7-7-------7-------7-------|
E|-7-7-5-5-4-x-x-x-4-x-x-x-4-4-5-5-5-x-x-x-5-x-x-x-5-x-x-x--|

                 (Slow down significantly at this point)
e-7-7-5-5------------------------------------------------------|
b-7-7-5-5------------------------------------------------------|
g-8-8-6-6------------------------------------------------------|
d-9-9-7-7------------------------------------------------------|
a-9-9-7-7------------------------------------------------------|
E-7-7-5-5-0-0-0-0-0-0-1-1-4-4-4-4-5-5-5-5-7-7-7-7-8-11--8\11/8-|
                          *Quickly pick each chord
e--------------------------0----5----8----10----------------|
b--------------------------0----5----8----10----------------|
g--------------------------1----6----9----11----------------|
d--------------------------2----7----10---12----------------|
a--------------------------2----7----10---12----------------|
E--7----7\8/7--5--7--1--0--0----5----8----10----------------|

[Outro]
(This uses a minor pentatonic scale in E, so if you don't like
the outro i've provided, you can come up with your own.)
e|--7\10h12-12-12-10h12-12-12-15p12----12--------------------|
B|-----------------------------------15----15p12----12-------|
G|-----------------------------------------------14----14p12-|
D|-----------------------------------------------------------|
A|-----------------------------------------------------------|
E|-----------------------------------------------------------|

e|-------------------------------------------------12----------|
B|-------------------------------------------------12----------|
G|----------------12h14p12-------------------------13----------|
D|---14p12--12h14----------14p12-------------------12----------|
A|-------------------------------14-13-12----------14----------|
E|---------------------------------------10\12-----12----------|


************************************

| x    Dead note
| /    Slide up
| \    Slide down
| p    Pull-off
| (n)  Ghost note
| h    Hammer-on

************************************

            
            
Suggest correction
Creating personal tab
Creating personal tab
You can edit any tab online and save it as your Personal.

You can edit, replace or remove any tab part or add personal notes – all changes will be seen only by you.

Personal tabs can be accessed anytime from any device, even offline.
Learn more »
comments
print report bad tab
3 comments total. show 1 bad comment
+1 reply
god of iceland 60 May 21, 2008 06:29 AM

and this slide of yours is wrong you just slide fast down from 19th fret...............duh

-1 reply
Hendrix_fan_14 60 Jun 10, 2009 03:04 AM

This is pretty spot on.

The only noob here is your failure to recognize the same notes.

guest
You may want to rate the tab now too:
select rating
Wanna post a correction for this tab? Suggest correction