Oops, an error
Loading. Please wait.

Complex tab

version 1
version 1

Whole song

969 views 1 this week
no commentswrite comment
1 2 3 4 5
2 more votes to show rating
add to favorites
×
Save as Personal and add changes to this tab that will be seen only by you. Learn more ›
×
You can save this tab as Personal to edit and correct it or add notes. All changes will be seen only by you. Learn more »
launch autoscroll
font size
0
reset
how to read this tab
guitar tuner
edit
Autoscroll
slow
fast
+/-
esc
set tempo
stop
Author
Artist : Dicta License
Song : Complex
Album : Paghilom
tabbed by clypeaster

swell - changing the volume..

intro and verse (kunin nyo na lang yung timing)
e-----------------|
b---7(swell)------|
g---7(swell)------|
d-----------------|
a-----------------|
e-----------------|

verse fill (some part before the chorus)
e-----9-----9-----|
b--7-----7--------|
g-----------------|
d-----------------|
a-----------------|
e-----------------|

chorus
    B  C#/D G
e-----------------|
b-----------------|
g---4--6/7--------|
d---4--6/7--5-----|
a---2--4/5--5-----|
e-----------3-----|

e-----------------|
b-----------------|
g---4--6/7--12----|
d---4--6/7--------|
a---2--4/5--10----|
e-----------------|

solo
e------------------------------------------|
b---------------------------2h3--3h5--5/7--|
g--2h4--2h4--2h4--2h4--2h4-----------------|
d------------------------------------------|
a------------------------------------------|
e------------------------------------------|

e------------------------------------------|
b---------------------------2h3--3h5--5/7--|
g--2h4--2h4--2h4--2h4--2h4-----------------|
d------------------------------------------|
a------------------------------------------|
e------------------------------------------|

e------------------------------------------|
b---------------------------2h3--3h5-------|
g--2h4--2h4--2h4--2h4--2h4-----------------|
d------------------------------------------|
a------------------------------------------|
e------------------------------------------|

e------------------------------------------|
b---------------------------2h3--3h5--5/7--|
g--2h4--2h4--2h4--2h4--2h4-----------------|
d------------------------------------------|
a------------------------------------------|
e------------------------------------------|

do the swelling again...

i think the bass goes like this..
g---------------|
d---------------|
a--2222-55------|
e-----------3---|

it's not perfect yet but at least we know where to start...
hope you guys like it...

            
            
Suggest correction
Creating personal tab
Creating personal tab
You can edit any tab online and save it as your Personal.

You can edit, replace or remove any tab part or add personal notes – all changes will be seen only by you.

Personal tabs can be accessed anytime from any device, even offline.
Learn more »
Give kudos to tab author, rate the tab!
1 2 3 4 5
comments
print report bad tab
guest
You may want to rate the tab now too:
select rating
Wanna post a correction for this tab? Suggest correction