Oops, an error
Loading. Please wait.

Sugat bass

460 views 1 this week
no commentswrite comment
1 2 3 4 5
3 more votes to show rating
add to favorites
×
Save as Personal and add changes to this tab that will be seen only by you. Learn more ›
×
You can save this tab as Personal to edit and correct it or add notes. All changes will be seen only by you. Learn more »
launch autoscroll
font size
0
reset
guitar tuner
edit
Autoscroll
slow
fast
+/-
esc
set tempo
stop
Difficulty
-=(BASS TAB)=-

Song Title: Sugat
Band Name: dicta.license

Verse: (Ito ang mga sugat)
(Gumawa kayo ng slide sa Start; Simula sa 12th Fret ng
pinakataas na string ng isang 4 String Bass Guitar Hanggang
sa 7 Fret. Walang pause dun ha. Angat agad ng Kamay. Tapos
Continue nyo nlang itong verse tab.)

|---------------------------------|
|---------------------------------|
|--7-----5---7--------------------|
|-----7------------3--------------|

Alternate nyo lang tong dalawa, basta yung huli dito eh etong
nasa baba.

|---------------------------------|
|---------------------------------|
|--7-----5---7--------------------|
|-----7------------6--------------|

Chorus:
|-------------------------------------------------|
|-------------------------------------------------|
|--7-----5---7--------------------0h9h10----------|
|-----7------------3----5-6-7-8-------------------|

Alternate nyo lang din tong dalawa, basta yung huli dito eh etong
nasa baba.

|-----------------------------------------------------|
|-----------------------------------------------------|
|--7-----5---7----------------------------------------|
|-----7------------6---7-6-5-0-3-0--------------------|

(Verse 2 and Ung Chorus nun eh pareho lang nang nasa taas.)

(Eto ung sa part na ung lyrics eh ganito [Hilumin mo ako sa mga galos ko sa mga galos
na hinataw mo 3x Hilumin mo ako sa mga galos ko sa mga galos kong ito] Ang pasok
dito eh dun sa pagkatapos ng 3x) Kayo nlang bahala sa bilang ng kalabit.

|----------------------------------------|
|----------------------------------------|
|----------------------------------------|
|-----7----12-----9----10----------------|


For More Information: Just E-mail me at dj_wob3t@yahoo.com or Text 
Question. Then Send to 09155433984.
I want to thank God for giving me talent to play Instruments. I want to greet SMB for 
supportive in what am I doing. Mabuhay ang mga Rakista at yung mga
tumatangkilik ng Musikang PILIPINO. Pinoy Tayo!!! ROCK ON!!! PHILIPPINES.

            
            
Suggest correction
Creating personal tab
Creating personal tab
You can edit any tab online and save it as your Personal.

You can edit, replace or remove any tab part or add personal notes – all changes will be seen only by you.

Personal tabs can be accessed anytime from any device, even offline.
Learn more »
Give kudos to tab author, rate the tab!
1 2 3 4 5
comments
print report bad tab
guest
Wanna post a correction for this tab? Suggest correction