Oops, an error
Loading. Please wait.

155 bass

version 1
version 1

Whole song

130 views 1 this week
2 commentsread comments
1 2 3 4 5
1 last vote to show rating
add to favorites
×
Save as Personal and add changes to this tab that will be seen only by you. Learn more ›
×
You can save this tab as Personal to edit and correct it or add notes. All changes will be seen only by you. Learn more »
launch autoscroll
font size
0
reset
guitar tuner
edit
Autoscroll
slow
fast
+/-
esc
set tempo
stop
Author
Die! Die! Die!
155 Bass
Locust Weeks EP

Verses/Intro/Bass Break
|  ---------------------------------------- |
|  ---------------------------------------- |
|  -----------------------5-5-------------- |
|  -5-5-5-5-5-5-5-5-5------2-2-2-2-2-2-2-2- |

Chorus
|  ----------------------------------------------------------------------- |
|  ----------------------------------------------------------------------- |
|  ----------------------------------------------------------------------- |
|  --4-4-4-4-4-4-4--6-6-6-6-6-6-6--9-9-9-9-9-9-9--11-11-11-11-11-11-11-11- |

Pre-verse
|  ------------------------------------------------- |
|  ------------------------------------------------- |
|  ------------------------------------------------- |
|  -3-3-5-5-3-3-5-5-3-3-5-5-3-3-5-5-3-3-5-5-3-3-5-5- |

Neways, I hope the tab is decent, please rate it and if you like Die!Die!Die! or you’ve 
some suggestions then email me on jamesdonaldson@hot-shot.com

Cheers

            
            
Suggest correction
Creating personal tab
Creating personal tab
You can edit any tab online and save it as your Personal.

You can edit, replace or remove any tab part or add personal notes – all changes will be seen only by you.

Personal tabs can be accessed anytime from any device, even offline.
Learn more »
Give kudos to tab author, rate the tab!
1 2 3 4 5
comments
print report bad tab
2 comments total.
0 reply
GelDouche 150 Feb 18, 2009 02:09 AM

Not even closes

0 reply
GelDouche 150 Feb 18, 2009 02:09 AM

close

guest
You may want to rate the tab now too:
select rating
Wanna post a correction for this tab? Suggest correction